» » »

Led Zeppelin, I'm Gonna Crawl Tabs (ver.4)

Artists:  A B C D E F G H I J K L M N O P Q R S T U V W X Y Z # 

I'm Gonna Crawl Tabs (ver.4)

Led Zeppelin Tabs
 Rating:
4/5 (4 votes)
I'm Gonna Crawl lessons Tabs too difficult? Try these video lessons and learn fast
                -------------------------------------------------------------------------------
                             I'm Gonna Crawl (solo)  - Led Zeppelin 
-------------------------------------------------------------------------------

Tuning: Standard

Guitar Solo
e|-------------------------------|-----------------------5------------------------|
B|-------------------------------|---------------------5---8==p5-8p5--------------|
G|-------------7fb---------------|-7fb-7fbp5--------5-5-------------7p5-7p5-----5-|
D|-------------------------------|---------------5-7-7---------------------7-5-7--|
A|-------------------------------|------------6-7---------------------------------|
E|-------------------------------|------------------------------------------------|

                       ~~~~~~~~~~
e|-------------------------------|------------------------------------------------|
B|-------------------------------|--------------8-10-10b12.5r10--8-8--------------|
G|--7fb--------7fb---7fb---------|-7fbp5-----/9-----------------------------------|
D|-------------------------------|------------------------------------------------|
A|-------------------------------|------------------------------------------------|
E|-------------------------------|------------------------------------------------|

e|--------------------------------------|-----------7-8-7h8p7-------------------------|
B|-8fb---8fb8fbr8-6---5-6--5h6p5--------|----------8---------10-8h10p8\6--8p6\5-5h6-5-|
G|-------------------7----------7-5-5-7-|-5---5-5-9-----------------------------------|
D|------------------7--------------7----|---7-----------------------------------------|
A|--------------------------------------|---------------------------------------------|
E|--------------------------------------|---------------------------------------------|

e|------------------|-------------------------------5-7-8-7h8p7p5-|-8----8-10--10fb--|
B|------------------|-----------------5h6p5---5-6--8--------------|--10--------------|
G|-7-5-7-5----------|-------------5-7-------7---------------------|------------------|
D|--------7-7-5---5-|-7-5-7-5-7-----------------------------------|------------------|
A|---------7----7---|--7---7--------------------------------------|------------------|
E|------------------|---------------------------------------------|------------------|

e|-8---8-10------12-15-|-15fbR15fb--|--17fb--------------15-17=fb-17fb-|
B|--10---------13------|------------|-------15-15--/15-17--------------|
G|-----------14--------|------------|----------------------------------|
D|---------------------|------------|----------------------------------|
A|---------------------|------------|----------------------------------|
E|---------------------|------------|----------------------------------|

e|--17fbR17-15-----17-15-17-17fb-15--17-15-17/////---------------------|
B|--------------17-----------------------------------------------------|
G|---------------------------------------------------------------------|
D|---------------------------------------------------------------------|
A|---------------------------------------------------------------------|
E|---------------------------------------------------------------------|

e|-/12-12-12-12-12-/12-12-12-12-12-/12-12-12-12-12-12-----|
B|-/13-13-13-13-13-/13-13-13-13-13-/13-13-13-13-13-13-----|
G|-----------------------------------------------------12-|
D|--------------------------------------------------------|
A|--------------------------------------------------------|
E|--------------------------------------------------------|

e|----------------------------------------|
B|----------------------------------------|
G|-12\10--12fb--10---12fb--10-12-10/////--|
D|----------------------------------------|
A|----------------------------------------|
E|----------------------------------------|

e|-/12-12-12-12-12-/12-12-12-12-12-/12-12-12-12-12-12-12//---|---13~~~~~~~~~~~~--15fb-|
B|-/13-13-13-13-13-/13-13-13-13-13-/13-13-13-13-13-13--------|-13---------------------|
G|-------------------------------------------------------/14-|------------------------|
D|-----------------------------------------------------------|------------------------|
A|-----------------------------------------------------------|------------------------|
E|-----------------------------------------------------------|------------------------|
            
Submit corrections

comments powered by Disqus
↑ Back to top | Led Zeppelin Tabs for I'm Gonna Crawl. Lyrics for acoustic guitar and electric guitar. Tablatures and chords are parodies/interpretations of the original songs. You may use it for private study, scholarship, research or language learning purposes only