» » »

I Got A Women Tabs (ver.1)

Artists:  A B C D E F G H I J K L M N O P Q R S T U V W X Y Z # 

I Got A Women Tabs (ver.1)

Led Zeppelin
Rating:
0/5 (0 votes)

Hard to play? Try these video lessons and learn fast.
                ok i looked all over for the song and couldnt fing it anywhere 
or i guess i just didnt know the real name of the song but 
here it is (I GOT A WOMEN) by Led Zepplin 


its really its 3 cords with a little switch up
           TUNE GUITAR  UP ONE STEP FROM E

G  F  C
3  1   0
3  1   1
0  2   0
0  3   2
2  0   3
3  0   0

i suggest useing your pointer finger for the first part 
      G 
E\-------------------------------------------------------------------------------------------------------------------------------------------------------|
B\-------------------------------------------------------------------------------------------------------------------------------------------------------|
G\-----------------0---0--0--0--0--0--0-------------0---0--0--0--0--0--0-------------0---0--0--0--0--0--0-------------0---0--0--0--0|
D\------------0-2-----0--0--0--0--0--0--------0-2-----0--0--0--0--0--0--------0-2------0--0--0--0--0--0--------0-2-----0--0--0--0|
A\-------0-2----------2--2--2--2--2--2---0-2----------2--2--2--2--2--2---0-2-----------2--2--2--2--2--2---0-2----------2--2--2--2|
E\----------------------3--3--3--3--3--3-----------------3--3--3--3--3--3-------------------3--3--3--3--3--3-----------------3--3--3--3|
         F  F         C
E\----1--1--------0---\                              
B\----1--1----0--1---\                  G   F  C  
G\----2--2----0--0---\                                       
D\----3--3----0--2---\                                 D\--------0-2---------\
A\----0--0--------3---\                                 A\---0-2------2--0---\
E\----0--0--------0---\                                 E\---------------------3\               repeat throught out the song
            
Hard to play? Try these video lessons and learn fast. | Correct




comments powered by Disqus
↑ Back to top | Tablatures and chords are parodies/interpretations of the original songs. You may use it for private study, scholarship, research or language learning purposes only