>
 >
I Cant Quit You Baby 3

I Cant Quit You Baby 3 Guitar Tabs

Led Zeppelin - I Cant Quit You Baby 3 chords, tabs, tablatures, lyrics

Guitar lessons | Add/correct | Request | Top 50 tabs Artists:  A B C D E F G H I J K L M N O P Q R S T U V W X Y Z 0-9

I Cant Quit You Baby 3 Guitar Tabs – Led Zeppelin

CD, Sheet music, Poster

Do you like I Cant Quit You Baby 3? Share with your friends now
Tabs
                              I CAN'T QUIT YOU BABY
                           As recorded by Led Zeppelin
                       (From the 1969 Album LED ZEPPELIN)

Words and Music by Willie Dixon
Arranged by Jimmy Page

Gtr I (E A D G B E) - 'Jimmy Page'

 Verse
  Q.=52
 12/8
  Gtr I
                                              ~~~~~~~            ~~~~~~
|-5------(5)------|--------------------------------------------------------|
|-5------(5)------|--------------5-8p5-8b10==(8)-(8)-8r(8)p5---------------|
|-5------(5)------|----7b9==(7)r-----------------------------7-5-6-(6)-6/--|
|-4------(4)------|--------------------------------------------------------|
|-5------(5)------|--------------------------------------------------------|
|-----------------|--------------------------------------------------------|


                           ~~~
|---------------------------------------------|
|------------5-8p5--8b10==(8)---(8)-----8r(8)-|
|--7b9==(7)r----------------------------------|
|---------------------------------------------|
|---------------------------------------------|
|---------------------------------------------|


|-----------------------------------------|
|-7------(7)b7.5--10b14==(10)--(10)r(10)--|
|-7------(7)b7.5--------------------------|
|-----------------------------------------|
|-----------------------------------------|
|-----------------------------------------|


    ~~~~
|---------------------|
|-(10)------(10)------|
|---------------------|
|---------------------|
|---------------------|
|---------------------|


                                                            ~
|--------------------------------------------------------------|
|------------5-8p5-8b10==(8)r(8)b10==(8)-(8)--(8)r(8)----------|
|--7b9==(7)r--------------------------------------------7-5-6--|
|--------------------------------------------------------------|
|--------------------------------------------------------------|
|--------------------------------------------------------------|


                       ~~~~~~~~~~
|------------------------------------|----------/19--------------|
|------------5-8p5-------------------|---------------------------|
|--7b9==(7)r--------6s14---(14)s=====|=16-----------/19----------|
|------------------------------------|------------------/7-------|
|------------------------------------|---------------------7\-0--|
|------------------------------------|---------------------------|


|-^5------(5)------||----5---6-----------------------------------|
|-^5------(5)------||----5---6-----------------------------------|
|-^5------(5)------||----6---7-7b9==(7)r-5-7p5---5-7-7-7-7-7b9===|
|-^4------(4)------||----7---8-----------------7-----------------|
|-^5------(5)------||----7---8-----------------------------------|
|------------------||----5---6-----------------------------------|


   ~~~~
|------------5---6-------------------------------------||
|------------5---6-------------------------------------||
|-(7)r-------6---7-7b9==(7)r-5-7p5h7p5-5---------------||
|--------x-x-7---8-----------------------5h7p5---5-----||
|--------x-x-7---8-----------------------------7---7s5p||
|------------5---6-------------------------------------||


 Verse
  ~
|-------------------------------------/18--4s===|
|-------------------------------------/18--4s===|
|------------------------------------------4s===|
|------------------------------------------3s===|
|-4---(4)b5==(4)r(4)b5==(4)r(4)-(4)-------------|
|-----------------------------------------------|


                                                 ~~~
|-5s=6s7s8/---------|------------------------------------------------------|
|-5s=6s7s8/---------|--------------5-8p5--8b10==(8)-(8)--(8)-8r(8)p5-------|
|-5s=6s7s8/---------|----7b9==(7)r-----------------------------------7-5-6-|
|-4s=5s6s7/---------|------------------------------------------------------|
|-------------------|------------------------------------------------------|
|-------------------|------------------------------------------------------|


                                     ~~~~~~~~
|-------------------------------------------------------------|
|---------------------5-8p5-----------------------------------|
|-(6)-(6)/--7b9==(7)r---------2s14-(14)b16====(14)--(14)r(14)-|
|-------------------------------------------------------------|
|-------------------------------------------------------------|
|-------------------------------------------------------------|


 9/8
|-0-----------------------|
|-0-------1s3s1s3s1s3s1s==|
|---------2s4s2s4s2s4s2s==|
|-------------------------|
|-------------------------|
|-------------------------|


 12/8
|-------------------------|
|-3s1-(1)--(1)---(1)------|
|-4s2-(2)--(2)---(2)------|
|-------------------------|
|-------------------------|
|-------------------------|


                                                         ~~
|---------------------------------------------------5-------|
|--------------5-8p5--8b10==(8)-(8)-8r(8)-5-------5---7s10--|
|----7b9==(7)r------------------------------7-5-6-----------|
|-----------------------------------------------------------|
|-----------------------------------------------------------|
|-----------------------------------------------------------|


    ~~~~~                             ~~~                 ~
|-------------------------------------------------------------------|
|-(10)p0----------------5-8p5--8b10==(8)-(8)--8r(8)p5-----------5---|
|-------------7b9==(7)r-------------------------------7-5-6-(6)---6-|
|----------7--------------------------------------------------------|
|-------------------------------------------------------------------|
|-------------------------------------------------------------------|


      ~~~~~~~~
|----------------------------|
|--5-(5)--(5)---(5)-----13---|
|----------------------------|
|----------------------------|
|----------------------------|
|----------------------------|


                      ~~
|---------------------------------------------------||
|-(13)b17==(13)r(13)-10---(10)----7b8==(7)r7b8==(7)r||
|---------------------------------7b9==(7)r7b9==(7)r||
|---------------------------------------------------||
|---------------------------------------------------||
|---------------------------------------------------||


|-------5---6------------------------------------|
|-(7)---5---6------------------------------------|
|-(7)---6---7-7pb9==(7)r(7)p5-7p5---5-7-7-7-7-7--|
|-------7---8---------------------7--------------|
|-------7---8------------------------------------|
|-------5---6------------------------------------|


        ~~~
|----------------5---6------------||
|----------------5---6----------5-||
|-7b9==(7)-(7)r--6---7------5h6---||
|----------------7---8----7-------||
|----------------7---8------------||
|----------------5---6------------||


 Guitar Solo
        ~~                               ~~~~
|--5-------------8-9--10b12==(10)r----------8b8.5-------|
|----8s10---(10)--------------------10-(10)---------10--|
|-------------------------------------------------------|
|-------------------------------------------------------|
|-------------------------------------------------------|
|-------------------------------------------------------|


              ~~                                         ~~
|--10-8-8--8----8-9--10p9-10p9--10b12==(10)r--8b8.5-------------8-9-|
|------------10--------------------------------------10-10-(10)-----|
|-------------------------------------------------------------------|
|-------------------------------------------------------------------|
|-------------------------------------------------------------------|
|-------------------------------------------------------------------|


   ~~~                          ~~
|-(9)---(9)-10p9-10b12==(10)r------8b8.5------|
|------------------------------10---------10--|
|---------------------------------------------|
|---------------------------------------------|
|---------------------------------------------|
|---------------------------------------------|


|-12-----------13b15==(13)r----------13b15==(13)r-----------13b15==(13)r--13-12-10----10-------------------|
|-----10-10-10--------------10-10-10---------------10-10-10------------------------13----13p12p10-12-------|
|----------------------------------------------------------------------------------------------------(11)--|
|----------------------------------------------------------------------------------------------------------|
|----------------------------------------------------------------------------------------------------------|
|----------------------------------------------------------------------------------------------------------|


|---------------------------------------------------------------------------------|
|-10-10-10b12==(10)r-10-12p10----10-13b16==(13)-(13)b17==(13)r(13)-10-10-(10)h13--|
|-----------------------------11--------------------------------------------------|
|---------------------------------------------------------------------------------|
|---------------------------------------------------------------------------------|
|---------------------------------------------------------------------------------|


                          ~
|-------------------------------------------------------5-----8p5---5-----------|
|-----5-8p5-8p5---5-----------------------------------5---8p5-----8---8p5-------|
|-2s6-----------7---7p5h6-------------5---5h7b9==(7)r---------------------8s7p5-|
|-------------------------7-5---5h6h7---7---------------------------------------|
|-----------------------------7-------------------------------------------------|
|-------------------------------------------------------------------------------|


|-----------------------------------------------------------|
|-----------5-----------------------------------------------|
|---5h6-5h6---(7)-7-5h6-------------------------------------|
|-7---------------------5--(5)-----5s7-5--------------------|
|------------------------------(0)-------7s5-4-(4)-4s5-4--5-|
|-----------------------------------------------------------|


|------------------------------------|
|------------------------------------|
|-----------------------------x/-----|
|--------------------------x\-x/-----|
|--4-5-4-5-4-5-4-5s7--0-0--x\-x/-----|
|-----------------------------x/-0---|


|---------------------------------------5-8-5-8-8-5-5h8p5----------------------------------|
|-----------------------------5-8-5-8-5-------------------8-5-5h8p5-----------------8-10---|
|-------------------5-7-7-5-7---------------------------------------7p5-7p5-----7s9--------|
|-------5---5-7-5-7---------------------------------------------------------7-7------------|
|--5s7----7--------------------------------------------------------------------------------|
|------------------------------------------------------------------------------------------|


                                           ~~
|---------------------------------------------12b14==(12)r-||
|---13b17==(13)r==(13)--13pb17==(13)r(13)-10---------------||
|----------------------------------------------------------||
|----------------------------------------------------------||
|----------------------------------------------------------||
|----------------------------------------------------------||


      ~~~~~~~
|-12--------------------------------------------------------------|
|----10-(10)--5---6-----------------------------------------------|
|-------------6---7-7pb8==(7)r(7)p5-7p5---5-7-7-7-7-7-7-7b9==(7)--|
|-------------7---8---------------------7-------------------------|
|-------------7---8-----------------------------------------------|
|-------------5---6-----------------------------------------------|


   ~~~~                                ~
|--------5---6---------------------------------5-|-5--10b12==(10)r-10-8-10b12==(10)r---------|
|--------5---6-------------------------------5---|----10b13==(10)r------10b13==(10)r------10-|
|-(7)r---6---7-7pb9==(7)r(7)p5-7p5---5---5-6-----|-------------------------------------------|
|--------7---8---------------------7---7---------|-------------------------------------------|
|--------7---8-----------------------------------|-------------------------------------------|
|--------5---6-----------------------------------|-------------------------------------------|


                              ~~~~~~~~
|-10b12==(10)r---10-8b8.5---------------------------|
|-10b13==(10)r------------10-10--(10)-(10)/---10----|
|---------------------------------------------------|
|---------------------------------------------------|
|---------------------------------------------------|
|---------------------------------------------------|


|-10b12==(10)r--10b12==(10)r-10-8b8.5-10b12==(10)r---------|
|-10b13==(10)r--10b13==(10)r----------------------------10-|
|----------------------------------------------------------|
|----------------------------------------------------------|
|----------------------------------------------------------|
|----------------------------------------------------------|


|-10b12==(10)------(10)--10-(10)r==(10)--|
|-10b13==(10)------(10)--10-(10)r--------|
|----------------------------------------|
|----------------------------------------|
|----------------------------------------|
|----------------------------------------|


|---------------------------------------5-----8p5---5------------------------------------|
|-------------------------------------5---8p5-----8---8p5-8p5---5------------------------|
|--9b11==(9)r-9-7p5-7p5---5-7b9==(7)r-------------------------7---7p5-7p5----------------|
|-----------------------7-------------------------------------------------7p5-7p5---5-7--|
|---------------------------------------------------------------------------------7------|
|----------------------------------------------------------------------------------------|


                 ~~~~~~~
|----------------------------------------------------------5-8p5---5--|
|--------------------------------------------------------5-------8----|
|--9b11==(9)r(9)-7--(7)--7--7b9==(7)r(7)p5---5-7b8==(7)r--------------|
|------------------------------------------7--------------------------|
|---------------------------------------------------------------------|
|---------------------------------------------------------------------|


|----------------------------------------------------------------------------------|
|----------------------------------------------------------------------------------|
|----5b5.5-------------------------------------------------------------------------|
|--7-------7-5h7p5---5-------------------------------------------------------------|
|------------------7---7p5p4-5p4-5p4-5p4-5p4-5p4-5p4--5b7==(5)r(5)p3---5---3b3.5---|
|--------------------------------------------------------------------5---5-------5-|


|-------------------------------------------------------------------|
|-------------------------------------------------------------------|
|-------------------------------------------------------------------|
|-----------------------------5---------------5-7b9==(7)r-7p5---5-7-|
|-------------------3-5-7-(7)---7s5-3-(3)-5s7-----------------7-----|
|-3h5p3-0-3-5-(5)-5-------------------------------------------------|


      ~
|----------------------------5---5-8p5---5-5---------8-9-|
|--------------------------5---8-------8-----8s10-10-----|
|----------------7b9==(7)r-------------------------------|
|-7s9----------------------------------------------------|
|-----7--(7)/--------------------------------------------|
|--------------------------------------------------------|


                                                              ~~
|-10-10-10b12==(10)r-8---------8-10-10pb12==(10)-(10)r(10)p8--------|
|----------------------10-(10)-------------------------------10-5---|
|---------------------------------------------------------------6---|
|---------------------------------------------------------------7---|
|---------------------------------------------------------------7---|
|---------------------------------------------------------------5---|


                                                               ~~~
|-------------------------------------------------------------------------------------------|
|-------------------------------------5-8p5-8p5-8p5-8p5-8b10==(8)-(8)r----------------------|
|-7-7pb9==(7)r(7)p5-7p5---5h7b9==(7)r------------------------------------7b9==(7)r-7p5---7p=|
|-8---------------------7--------------------------------------------------------------7----|
|-8-----------------------------------------------------------------------------------------|
|-6-----------------------------------------------------------------------------------------|


  ~
|------------------------------------------------------------------||
|-----5---6--------------------------------------------------------||
|-5---6---7-7pb9==(7)r(7)b9==(7)r(7)b9==(7)r(7)b9==(7)r(7)b9==(7)r-||
|-----7---8--------------------------------------------------------||
|-----7---8--------------------------------------------------------||
|-----5---6--------------------------------------------------------||


 Outro
        ~~~~~~~~~~~~
|----------------------------4--|
|----------------------------4--|
|-7b9==(7)------(7)---(7)r---4--|
|----------------------------3--|
|----------------------------4--|
|-------------------------------|


                                                  ~~~
|-(4)s5--(5)---(5)------|---------------------------------------------------|
|-(4)s5--(5)---(5)------|------------5-8p5-8b10==(8)---(8)r(8)--------------|
|-(4)s5--(5)---(5)------|--7b9==(7)r----------------------------7-6---------|
|-(3)s4--(4)---(4)------|-------------------------------------------5-(5)/--|
|-(4)s5--(5)---(5)------|---------------------------------------------------|
|-----------------------|---------------------------------------------------|


                             ~~~~~   ~~~
|------------------------------------------|
|-------------5-8p5--7s10--(10)s13s=15s=17-|
|---7b9==(7)r------------------------------|
|------------------------------------------|
|------------------------------------------|
|------------------------------------------|


|--------------------------------------------------------------|
|-(17)-------7b8==(7)r=7b8===(7)r(7)b8==(7)r(7)b8==(7)r(7)b10==|
|------------7b9==(7)r(7)b9==(7)r(7)b9==(7)r(7)b9==(7)r(7)b11==|
|--------------------------------------------------------------|
|--------------------------------------------------------------|
|--------------------------------------------------------------|


|-----------------|
|-(7)r------------|
|-(7)r------------|
|-----------------|
|-----------------|
|-----------------|


                           ~~~                              ~~~~
|--------------------------------------------------5------------|
|-------------5-8p5-8b10==(8)--(8)-8r(8)p5-------5---7s10-(10)--|
|---7b9==(7)r------------------------------7-5-6----------------|
|---------------------------------------------------------------|
|---------------------------------------------------------------|
|---------------------------------------------------------------|


                           ~~~~~~~~~
|--------------------------------------------|
|------------5-8p5--8b10==(8)---(8)---(8)r---|
|--7b9==(7)r---------------------------------|
|--------------------------------------------|
|--------------------------------------------|
|--------------------------------------------|


|-6s7---(7)-(7)/---/19---------------|
|-6s7---(7)-(7)/-------/19-----------|
|-6s7---(7)-(7)/-----------/19-------|
|-5s6---(6)-(6)/---------------/19---|
|-6s7---(7)-(7)/---------------------|
|----------------------------------0-|


  ~~~~~~~~~~~
|---------------------------|
|-5------(5)---(5)-(5)\-----|
|-5------(5)---(5)-(5)\-----|
|-4------(4)---(4)-(4)\-----|
|-5------(5)---(5)-(5)\-----|
|-----------------------(0)-|


|----5------------------------------------------------|
|----5---6--------------------------------------------|
|----6---7-7pb9==(7)r(7)p5-7p5---5-7-7-7-7-7-7-7-7b9==|
|----7---8---------------------7----------------------|
|----7---8--------------------------------------------|
|----5---6--------------------------------------------|


   ~~~                                            ~
|-----------------------------------------------8p5-----|-x------------*|
|------------5---6----------------------------------8p5-|--------------*|
|-(7)--(7)r--6---7-7pb9==(7)r(7)p5-7p5---5--------------|---------7----*|
|------------7---8---------------------7---7p5----------|-----7---8----*|
|------------7---8--------------------------------------|-----7---8----*|
|------------5---6--------------------------------------|-----5---6----*|


Tablature Legend
----------------
 h   - hammer-on
 p   - pull-off
 b   - bend
 pb  - pre-bend
 r   - bend release (if no number after the r, then release immediately)
 /\  - slide into or out of (from/to "nowhere")
 s   - legato slide
 S   - shift slide
  - natural harmonic
[n]  - artificial harmonic
n(n) - tapped harmonic
 ~   - vibrato
 tr  - trill
 T   - tap
 TP  - trem. picking
 PM  - palm muting
\n/  - tremolo bar dip; n = amount to dip
 \n  - tremolo bar down
 n/  - tremolo bar up
/n\  - tremolo bar inverted dip
 =   - hold bend; also acts as connecting device for hammers/pulls
 <>  - volume swell (louder/softer)
 x   - on rhythm slash represents muted slash
 o   - on rhythm slash represents single note slash

Misc Legend
-----------
 |  - bar
||  - double bar
||o - repeat start
o|| - repeat end
*|  - double bar (ending)
 :  - bar (freetime)
 $  - Segno
 &  - Coda
Tempo markers -  = BPM(8/16=s8/s16), where s8 = swing 8ths, s16 = swing 16ths


***************************************************************************************
***************************************************************************************





Comments


Popular Led Zeppelin tabs & chords
D'yer Maker 1 Bass Tabs
Dyer Maker 2 Bass Tabs
Top Of The Pops Tune Bass Tabs
Hey Hey What Can I Do Chords
Street Corner Girl Chords
Bron Y Aur Stomp Complete Tabs
I Cant Quit You 2 Tabs
Out On The Tiles Tabs
Rock N Roll Tabs
The Rover 1 Tabs


Song lyrics



↑ Back to top | Tablatures and chords are parodies/interpretations of the original songs. You may use it for private study, scholarship, research or language learning purposes only
© 2014 AZChords.com Contact us | Privacy policy | DMCA | Add/correct tabs | Request tabs | Top 50 tabs