» » »

Led Zeppelin, I Can't Quit You Baby Tabs (ver.3)

Artists:  A B C D E F G H I J K L M N O P Q R S T U V W X Y Z # 

I Can't Quit You Baby Tabs (ver.3)

Led Zeppelin Tabs
Rating:
0/5 (0 votes)
I Can't Quit You Baby lessons Tabs too difficult? Try these video lessons and learn fast
                "(2)
-----------------------------------------------------------------------------
                 Led Zeppelin - I Can't Quit You Baby
-----------------------------------------------------------------------------
Standard Tuning


E|------------------------|5-----------------------|
B|------------------------|5-----------------------|
G|------------------------|5-----------------------|
D|------------------------|4-----------------------|
A|------------------------|5-----------------------|
E|------------------------|------------------------|
  I can't quit you baby...

E|------------------------|------------------------|
B|------------------------|------------------------|
G|-858585851085-----------|-------58510---85-6-----|
D|-------------75-75-----7|------5----------7----57|
A|---------------7--76534-|5-----5-----------------|
E|------------------------|------------------------|

E|-------------858-8128128|85-8-8--855555-85-------|
B|------------------------|------------------------|
G|--7-8-7-----------------|------------------------|
D|4-----------------------|------------------------|
A|------------------------|------------------------|
E|------------------------|------------------------|
                   \-3/

E|------------------------|----------585-----------|
B|---55858585851085-------|---------5---10-10171513|
G|--9--------------75-5---|-------79---------------|
D|-------------------7-75-|----75------------------|
A|------------------------|7654--------------------|
E|------------------------|------------------------|

E|--------------1515151515|------------------------|
B|13------------1717171717|17--171513131517--1715--|
G|------------------------|----------------15------|
D|--14--------------------|------------------------|
A|------------------------|------------------------|
E|------------------------|------------------------|

E|----------------------5-|-------------10875--5---|
B|13-------------------5--|------------9-----8--875|
G|--14---------9757---5--7|6---6-------------------|
D|------7-----8----757----|----7-----8-------------|
A|------7-----8-----------|----7-----8-------------|
E|----0-5-----6-----------|----5-----6-------------|

E|------------------------|------------------------|
B|--5----------17-15131517|13----------------------|
G|------------------------|--141414-121212-1111----|
D|------------------------|------------------------|
A|------------------------|------------------------|
E|------------------------|------------------------|

E|------------------------|------------------------|
B|-------5585--5585--5585-|-5585--5585--5585454----|
G|------9-----9-----9-----|9-----9-----9-------7575|
D|------------------------|------------------------|
A|------------------------|------------------------|
E|------------------------|------------------------|

E|----------------------10|85-8-8-8-8-8-8-78776--6-|
B|-8----------------------|--7---------------------|
G|9--987------------------|------------------------|
D|------------------------|------------------------|
A|------------------------|------------------------|
E|------------------------|------------------------|

E|5-----------------------|------------------------|
B|------10-85-------------|-----858585858510--85---|
G|--975------75-----------|---99----------------78-|
D|-----7-------75-----7-55|-----------------------5|
A|---------------7654-----|------------------------|
E|------------------------|------------------------|

E|------------------------|------------------------|
B|----88------------8---8-|7-----------------------|
G|---999------------9---9-|75----------------------|
D|757---------------------|--7654-------444-4-----7|
A|------------------------|-----------------------7|
E|------------------------|-----------------------5|

E|--------------------5---|------------------------|
B|------------------------|---------------------578|
G|------------97575-59-75-|6-------------------6---|
D|-----7-----8-----7-----7|------7-----8-----------|
A|-----7-----8------------|------7-----8-----------|
E|-----5-----6------------|------5-----6-----------|

  Guitar Solo
E|------------8919-1210910|-12108--8108------------|
B|10----------------------|------10----10--171615--|
G|------------------------|----------------------17|
D|------------------------|--------------16--------|
A|------------------------|------------------------|
E|------------------------|------------------------|

E|------------------------|------------------------|
B|-----------1517---191615|---------17171717171717-|
G|-2117--1714----14-------|1714171418181818181817--|
D|-----16-----------------|------------------------|
A|------------------------|------------------------|
E|------------------------|------------------------|

E|--5---5---5---5---5---5-|8118108---811------030--|
B|55-855-855-855-855-855-8|-------810------------31|
G|------------------------|-------------779557-----|
D|------------------------|------------------------|
A|------------------------|------------------------|
E|------------------------|------------------------|

E|------------------------|--------------------13--|
B|------------------------|----------------------12|
G|-------020--------5-5---|------------------------|
D|--3--02---20---575-7-75-|5------252---------57---|
A|03-30-------357--------7|-753-3----353--3557-----|
E|------------------------|-------------35---------|

E|---161615---------------|------------------------|
B|---------17-------------|--------202017--17191919|
G|-13--------141714--14-14|141714--------21--191919|
D|-----------------14-----|------17----------------|
A|------------------------|------------------------|
E|------------------------|------------------------|

E|------------------------|------------------------|
B|1917--------------------|------------------------|
G|191719-------------575-5|5---------------------14|
D|-------7---8-575-57---7-|----7-------8-----------|
A|-------7---87---7-------|----7-------8-----------|
E|-------5---6------------|----5-------6-----------|

E|------------------------|----------------0-------|
B|17--17151317------------|17--1715--1213----------|
G|----------------14----14|--------------14------14|
D|------------------------|------------------------|
A|------------------------|------------------16----|
E|------------------------|------------------------|

E|------------------------|----17----17----17----17|
B|1617161716171617161714--|--17----17----17----17--|
G|------------------------|------21----21----21----|
D|------------------------|19----------------------|
A|------------------------|------------------------|
E|------------------------|------------------------|

E|2117--2017--2117--2017--|------14----------------|
B|----17----17----17----17|----14--1614--14585-----|
G|------------------------|1418--------16-----75---|
D|------------------------|---------------------75-|
A|------------------------|-----------------------7|
E|------------------------|------------------------|

E|------------------------|------------15-15-15----|
B|------------------------|7-----------17-17-171513|
G|-----------------642----|-7979-------------------|
D|--------------234---4040|------------------------|
A|65-5-3-0354-34----------|------------------------|
E|-----------3------------|------------------------|

E|-----------------1517---|-------------------5----|
B|17151717-1715---------15|13------------------75--|
G|-------------13---------|--14-----------5757---75|
D|---------------12-------|-----7---875-57---------|
A|------------------------|-----7---8--7-----------|
E|------------------------|----05---6--------------|

E|--------------1087------|------------------------|
B|------------------5-----|------------------------|
G|-------------------875-5|5-----------------------|
D|------7-----8---------7-|------7-----8-----------|
A|765---7-----8-----------|------7-----8-----------|
E|------5-----6-----------|------5-----6-----------|

E|------------------------|
B|------------------------|
G|------------------------|
D|------------------------|
A|------------------------|
E|------------------------|
"            

comments powered by Disqus
↑ Back to top | Led Zeppelin Tabs for I Can't Quit You Baby. Lyrics for acoustic guitar and electric guitar. Tablatures and chords are parodies/interpretations of the original songs. You may use it for private study, scholarship, research or language learning purposes only