» » »

Led Zeppelin, Houses Of The Holy Bass tabs (ver.5)

Artists:  A B C D E F G H I J K L M N O P Q R S T U V W X Y Z # 

Houses Of The Holy Bass tabs (ver.5)

Led Zeppelin Tabs
 Rating:
4/5 (4 votes)
Houses Of The Holy lessons Tabs too difficult? Try these video lessons and learn fast
                Houses Of The Holy by Led Zeppelin
standard tuning

G|----------------|----------------|----------------|----------------|
D|----------------|----------------|--------7-7-----|----7-7---------|
A|----------------|----------0---0-|--3-4-0-------3-|4-0-------0---0-|
E|----------------|----------------|----------------|----------------|

G|----------------|----------------|----------------|----------------|
D|--------7-7-----|----7-7---------|--------7-7-----|----7-7---------|
A|--3-4---------3-|4-0-------0---0-|--3-4---------3-|4-0-------0-----|
E|----------------|----------------|----------------|--------------0-|

G| ----------------|----------------|----------------|----------------|
D|o------------2-0-|--0---5---0-----|------------2-0-|--0---5---0-----|
A|o----------4-----|--------------0-|----------4-----|--------------0-|
E| --0-0---0-------|----------------|--0-0-0-0-------|----------------|
             Let me take you to the movies....

G|----------------|----------------|----------------|----------------|
D|------------2-0-|--0---5---0-----|------------2-5-|--0---5---0-----|
A|----------4-----|--------------0-|----------4-----|--------------0-|
E|--0-0-0-0-------|----------------|--0-0-0-0-------|----------------|

G|----------------|----------------|----------------|----------------|
D|--------7-7-----|----7-7---------|--------7-7-----|----7-7---------|
A|--3-4-0-------3-|4-0-------0---0-|--3-4---------3-|4-0-----------0-|
E|----------------|----------------|----------------|----------2-3---|

G|----------------|----------------|----------------|----------------|
D|--------7-7-----|----7-7---------|--------7-7-----|----7-7---------|
A|--3-4---------3-|4-0-----------0-|--3-4---------3-|4-------------0-|
E|----------------|----------2-3---|----------------|----------2-----|
                 
                                                     1________________
G|----------------|----------------|----------------|-----------------|      
D|--------7-7-----|----7-7---------|--------7-7-----|----7-7---------o|
A|--3-4---------3-|4-0----------0-0|--3-4---------3-|4-------------0-o|
E|----------------|---------3------|----------------|----------2------| 

 2________________
|-----------------|
|------7-7--------|
|--4-0------0-----|
|---------------0-|

G|----------------|----------------|----------------|----------------|
D|------------2-0-|--0---5---0-----|------------2-0-|--0---5---0-----|
A|----------4-----|--------------0-|----------4-----|--------------0-|
E|--0-0---0-------|----------------|--0-0-0-0-------|----------------|
        
G|----------------|----------------|----------------|----------------||
D|------------2-0-|--0---5---0-----|------------2-0-|--0---5---0-----||
A|----------4-----|--------------0-|----------4-----|--------------0-||
E|--0-0-0-0-------|----------------|--0-0-0-0-------|----------------||

G|----------------|----------------|----------------|----------------|
D|--------7-7-----|----7-7---------|--------7-7-----|----7-7---------|
A|--3-4-0-------3-|4-0-------0---0-|--3-4---------3-|4-0-----------0-|
E|----------------|----------------|----------------|----------2-3---|

G|----------------|----------------|----------------|----------------||
D|--------7-7-----|----------------|--------7-7-----|----7-7---------||
A|--3-4---------3-|4-0---0------0-0|0-3-4---------3-|4-0-------0-----||
E|----------------|----2-----2-----|----------------|--------------0-||

G|----------------|----------------|----------------|----------------|
D|----------------|--------7-7-----|----------7---7-|--------7-7-----|
A|----------3-4-0-|--3-4-0-------3-|4-0---0---------|--3-4---------3-|
E|--0-0-0-0-------|----------------|----2-----------|----------------|

G|----------------|----------------|----------------|----------------|
D|--7-7-7---4-----|--------7-7-----|----------------|--------7-7-----|
A|4-------------0-|--3-4---------3-|4-0-0-0------0--|0-3-4---------3-|
E|----------------|----------------|----------2-----|----------------|

E|--------------------|
A|------7-7-----------|
D|--4-0------0-----00-|
G|--------------------|

G| ----------------|----------------|----------------|----------------|
D|o--------7-7-----|----------------|--------7-7-----|----------------|
A|o0-3-4---------3-|4-0---0---10--0-|--3-4---------3-|4-0---0------0--|
E| ----------------|----2-----------|----------------|----2-----2-----|

G|----------------|----------------|----------------|---------------- |
D|--------7-7-----|----7-7---------|--------7-7-----|----------------o|
A|0-3-4---------3-|4---------0---0-|--3-4---------3-|4-0----0------0-o|
E|----------------|----------------|----------------|--------2-3----- |
            
Submit corrections

comments powered by Disqus
↑ Back to top | Led Zeppelin Bass for Houses Of The Holy. Lyrics for acoustic guitar and electric guitar. Tablatures and chords are parodies/interpretations of the original songs. You may use it for private study, scholarship, research or language learning purposes only