>
 >
Houses Of The Holy 3

Houses Of The Holy 3 Guitar Tabs

Led Zeppelin - Houses Of The Holy 3 chords, tabs, tablatures, lyrics

Guitar lessons | Add/correct | Request | Top 50 tabs Artists:  A B C D E F G H I J K L M N O P Q R S T U V W X Y Z 0-9

Houses Of The Holy 3 Guitar Tabs – Led Zeppelin

CD, Sheet music, Poster

Do you like Houses Of The Holy 3? Share with your friends now
Bass TabsBass Tabs v2Bass Tabs v3Bass Tabs v4Bass Tabs v5ChordsTabsTabs v2Tabs v3Tabs v4Ukulele
HOUSES OF THE HOLY
As recorded by Led Zeppelin
(From the 1975 Album PHYSICAL GRAFFITI)

Words and Music by Jimmy Page & Robert Plant

Gtr I (E A D G B E) - 'Jimmy Page - Rhythm w/dist'
Gtr II (E A D G B E) - 'Jimmy Page - Rhythm / Lead w/dist'

Intro
  Q=120
 4/4
  Gtr I
  E E E E E E E E   E E E E E  E E  E   E E E E E E E E   E E E E E  E E  E
|-----------------|------------2----2-|-----------------|------------2----2--|
|-----------------|------------2----2-|---------2-2-----|-----2-2----2----2--|
|---------2-2-----|-----2-2----2----2-|---------2-2-----|-----2-2----2----2--|
|---2-2---2-2---2-|-2---2-2----2----2-|---2-2---2-2---2-|-2---2-2----2----2--|
|---3-4-0-0-0---3-|-4-0-0-0-----------|---3-4-0-0-0---3-|-4-0-0-0------------|
|-----------------|-------------------|-----------------|--------------------|
|
| Gtr II
| W                 H       E  E E  E   W                 H       E  E E  E
|-----------------|-----------14---14-|-----------------|-----------14---14--|
|-----------------|-----------14---14-|-----------------|-----------14---14--|
|-----------------|-----------14---14-|-----------------|-----------14---14--|
|-----------------|-------------------|-----------------|--------------------|
|-----------------|-------------------|-----------------|--------------------|
|-----------------|-------------------|-----------------|--------------------|
                  |-Rhy Fill 1      --|

  E E E E E E E E   E E E E E  E S  S S  S
|-----------------|------------2----2----2-|
|---------2-2-----|-----2-2----2----2----2-|
|---------2-2-----|-----2-2----2----2----2-|
|---2-2---2-2---2-|-2---2-2----------------|
|---3-4-0-0-0---3-|-4-0-0-0----------------|
|-----------------|------------------------|
|
| W                 H       E  E S  S S  S
|-----------------|-----------14---14---14-|
|-----------------|-----------14---14---14-|
|-----------------|-----------14---14---14-|
|-----------------|------------------------|
|-----------------|------------------------|
|-----------------|------------------------|
                  |-Rhy Fill 2

   e E E E E E E E   E E E E E E E E
|--2---------------|---------------0-||
|--2-------2-2-----|-----------2---0-||
|--2-------2-2-----|-----2-2---2---1-||
|----2-----2-2---2-|-----2-2---2---2-||
|----3-4-0-0-0---3-|-4-0-0-0---0---2-||
|------------------|---------------0-||
|
|  q   Q   H         W
|-14---------------|-----------------||
|-14---------------|-----------------||
|-14---------------|-----------------||
|------------------|-----------------||
|------------------|-----------------||
|------------------|-----------------||
    end Rhy Fill 2-|


   Verses
    +H     +E  E E E   E E E E E E E E   E E Q  +E  E E E   E E E E E E E E
||--(0)----(0)-------|-----------------|-----0--(0)-------|------------------|
||o-(0)----(0)-----3-|---3---3---3-----|-----0--(0)-----3-|---3---3---3------|
||--(1)----(1)-----2-|---2---4---2---2-|---1------------2-|---2---4---2---2--|
||--(2)----(2)---2-0-|---0---0---0---2-|---2----------2-0-|---0---0---0---2--|
||o-(2)----(2)-4-----|---------------0-|---2--------4-----|---------------0--|
||--(0)----(0)-------|-----------------|---0--------------|------------------|
|
|    H      Q    E E   E E E E E E Q     H       Q    E E   E E E E E E Q
||-----------------7-|---5---3---2-----|----------------7-|---5---3---2------|
||o----------------8-|---7---3---3-----|----------------8-|---7---3---3------|
||-----------------7-|---7---4---2-----|----------------7-|---7---4---2------|
||-------------------|-----------------|------------------|------------------|
||o------------------|-----------------|------------------|------------------|
||-------------------|-----------------|------------------|------------------|
                                       |-Rhy Fig 1 (both Gtrs)             --|

Rhy Fig 1 x2


  1,3,5.
        w/Rhy Fill 1
  E E E E E E E E   E E E E E  E E  E
|-----------------|------------2----2-|
|---------2-2-----|-----2-2----2----2-|
|---------2-2-----|-----2-2----2----2-|
|---2-----2-2---2-|-----2-2----2----2-|
|---3-4-0-0-0---3-|-4-0-0-0-----------|
|-----------------|-------------------|



  E E E E E E E E   E E E E    +S   S S S S S S S
|-----------------|-------------------------------|
|---------2-2-----|-------------------------------|
|---------2-2-----|---2-2-4b6==(4)rp2-4p2-4p2-----|
|---2-2-2-2-2---2-|-2-2-----------------------4p2-|
|---3-4-0-0-0---3-|-4-0---------------------------|
|-----------------|-------------------------------|
                  |-Substitute Fill 1 2nd time
                  |-Substitute Fill 3 3rd time (see bottom of tab for Fills)


                   |-w/Rhy Fill 2
  E E E E E E E E   E E E E E  e S  S S  S
|-----------------|------------2----2----2-|
|---------2-2-----|-----2-2----2----2----2-|
|---------2-2-----|---2-2-2----2----2----2-|
|---2-2---2-2---2-|---2-2-2----2----2----2-|
|-0-3-4-0-0-0---3-|-4---0-0----------------|
|-----------------|------------------------|



   e E E E E E E E   E E E E E E E E
|--2---------------|---------------0--||
|--2-------2-2-----|-----2-2---2---0-o||
|--2-------2-2-----|-----2-2---2---1--||
|--2-2-2---2-2---2-|-2---2-2---2---2--||
|----3-4-0-0-0---3-|-4-0-0-0---0---2-o||
|------------------|---------------0--||



  2,4.                              |-w/Rhy Fill 1
  E E E E E E E E   E E E E E E E E   E E E E E  E E  E
|---0-0-0-0-------|-----------------|------------2----2-|
|---0-0-0-0-------|---------2-2-----|-----2-2----2----2-|
|---1-1-1-1-----2-|---------2-2-----|-----2-2----2----2-|
|---2-2-2-2-2-2-2-|---2-2---2-2---2-|-2-2-2-2-----------|
|---2-2-2-2-3-4-0-|---3-4-0-0-0---3-|-4-0-0-0-----------|
|---0-0-0-0-------|-----------------|-------------------|



  E E E E E E E E   E E E.  S S S S S S S S S   E E E E E E E E
|-----------------|---------2-----------------|-----------------|
|---------2-2-----|-----------5p2-------------|---------2-2-----|
|---------2-2-----|---2-4b6-------4p2---4p2---|-2-------2-2-----|
|---2-----2-2---2-|---2---------------4-----4-|---------2-2---2-|
|---3-4-0-0-0---3-|-4-------------------------|---3-4-0-0-0---3-|
|-----------------|---------------------------|-----------------|
|-Substitute Fill 2 2nd time


w/Rhy Fill 2
  E E E E E  E S  S S  S    E E E E E E E E   E E E E E E E E
|------------2----2----2-|--2---------------|---------------0--||
|-----2-2----2----2----2-|--2-------2-2-----|-----2-2---2---0-o||
|-----2-2----2----2----2-|--2-------2-2-----|-----2-2---2---1--||
|-2---2-2----------------|----2-----2-2---2-|-----2-2---2---2--||
|-4-0-0-0----------------|----3-4-0-0-0---3-|-4-0-0-0---0---2-o||
|------------------------|------------------|---------------0--||



 6.
   E e e e e E E e
|----0-0-0-0-------||
|----0-0-0-0-------||
|----1-1-1-1-----2-||
|----2-2-2-2-2-2-2-||
|----2-2-2-2-3-4-0-||
|----0-0-0-0-------||


                  |-w/Rhy Fill 1
  E E E E E E E E   E E E E E  E E  E   E E E E E E E E   E E E E E e E E
|-----------------|------------2----2-|-----------------|-----------2---2-|
|---------2-2-----|-----2-2----2----2-|---------2-2-----|-----2-2---2---2-|
|---------2-2-----|-----2-2----2----2-|-------2-2-2-----|-----2-2---2---2-|
|---2---2-2-2---2-|-2---2-2----2----2-|---2-2-2-2-2---2-|-2-2-2-2---------|
|---3-4-0-0-0---3-|-4-0-0-0-----------|---3-4-0-0-0---3-|-4-0-0-0---------|
|-----------------|-------------------|-----------------|-----------------|
|-Rhy Fig 2

  E E E E E E E E   E E E E E e E e   E E E E E E E E   E E E E E E S S S S
|-----------------|-----------2---2-|-----------------|-----------2---2---2-||
|---------2-2-----|-----------2---2-|-----------------|-----2-2---2---2---2-||
|-------2-2-2-----|-----2-2---2---2-|---------2-2-----|---2-2-2---2---2---2-||
|---2-2-2-2-2---2-|-2-2-2-2---------|---2---2-2-2---2-|-2-2-2-2---2---2---2-||
|---3-4-0-0-0---3-|-4-0-0-0---------|---3-4-0-0-0---3-|-4-0-0-0-------------||
|-----------------|-----------------|-----------------|---------------------||
                                                              end Rhy Fig 2-|


 Outro - Guitar Solo
 w/Rhy Fig 2 to end
 Gtr II
  H       +E  Q.        Q     E.    S S E   S e S S
|---------------------|-----------------------------|
|---------------------|-----------------------------|
|-------------7b9-----|-7b9---7b9---5-7p5---7p5-7p5-|
|---------------------|-----------------------------|
|-0-------(0)---------|-----------------------------|
|---------------------|-----------------------------|


       ~~~~~~~~
  e S S Q   +E  E   S S S S   S S S S +S  S E S S S S S S E
|-------------------5-------|---------------------------------|
|---------------------8p5---|---------------------------------|
|---------------7b9-------8s|=7p5-7p5-(5)-7p5-5-7p5---5h7-----|
|-5-7-7-5---(5)-------------|-----------------------7---------|
|---------------------------|---------------------------------|
|---------------------------|---------------------------------|


 S S S S E S S S S S S S S S S   E S S E E E S S S S S    +S
|-------------------------------|------------------------------|
|-------------------------------|------------------------------|
|-------------------------------|-------------x-----2-4b5==(4)-|
|-7p5---7p5-5p0-----------------|---------------2-4------------|
|---------------5-5p3p0-2h3---3s|=4-3s4p0-0-0------------------|
|-------------------------------|------------------------------|


 +Q     Q      a +S  E   S E e   S S E E S S +Q    S    +S   S S
|-------------------------------|-----------------------------2-----|
|-------------------------------|-------------------------------5p==|
|-(4)r---4b6====4r(4)p2---4p2-0-|-2p0h2---4p2-(2)---4b6==(4)r-------|
|-------------------------------|-----------------------------------|
|-------------------------------|-----------------------------------|
|-------------------------------|-----------------------------------|


 E e S S S S     E S S S S S S   S S S S S S s S S S S   S  +S  S  E
|-------------------------------|-----------------------/10-(10)-9-10-|
|-0-------------------------8-5-|-------------------------------------|
|---4-4p2-4-4b4.5p2-4-5-6-------|-7p5---7p5---8-7p5---5---------------|
|-------------------------7-----|-----------7-------7-----------------|
|-------------------------------|-------------------------------------|
|-------------------------------|-------------------------------------|


                                                    ~~~~~~~
                                               |3-|
   S S  S S +E  S  s  e  e  e  E      E  e  e  e  S  Q    E S S
|-10p9------------------------------|-----------------------------|
|------10------------10----10-12b14-|---12-10----12-10---10-------|
|---------9-(9)-9s11----11----------|---------12------------8-8---|
|-----------------------------------|-----------------------------|
|-----------------------------------|-----------------------------|
|-----------------------------------|-----------------------------|


 a S S Q   S S S E.   E  S S
|-----------------------------|
|-------8-----8-8-8----0-/8-8-|
|-8s9-9-----8-9-9-9------/9-9-|
|-----------------------------|
|-----------------------------|
|-----------------------------|



                                                       ~~~~~~      ~         ~
  E S  S  S  E    S S  T      +T   S  S  S  S  e   S S E +S  S S S Q   S S S S
|------------------------------------------------|------------------------------|
|-8------10-10--------12pb13r(12)p10----12----10-|-----8-(8)-8-----8-------8-8--|
|-9-9s11---------11------------------11----11----|-8-9---------8s9-----8s9------|
|------------------------------------------------|------------------------------|
|------------------------------------------------|------------------------------|
|------------------------------------------------|------------------------------|


  ~~~         ~~~
  +E  S  S  S  E.    S     S  S  S  S  S  S  S
|----------------------------------------------|
|-(8)------10-10----12b14-12-10----12----10-12-|
|-----9-11----------------------11----11-------|
|----------------------------------------------|
|----------------------------------------------|
|----------------------------------------------|


  q   E  e  e  e  e  E        +E    e  S  S  S  S H
|-----------14--------------|-------------------------------*|
|-10-----14----17-14--------|-------------------------------*|
|--------------------16b18==|=(16)r-16-14----16p14----------*|
|---------------------------|-------------16----------------*|
|---------------------------|-------------------------------*|
|---------------------------|-------------------------------*|




Fill 1
  E E E E    +S   S S S S S S S    E E E E E E E E
|-----------------2--------------|-----------------|
|-----------------2-5p2----------|---------2-2-----|
|-----2-4b6==(4)r-------4p2---4p=|-2-------2-2-----|
|-2---2---------------------4----|---------2-2---2-|
|-4-0----------------------------|---3-4-0-------3-|
|--------------------------------|-----------------|


Fill 2
  E E E E E E E.  S   S S S S S S S S S S S S S S S S   E E E E E E E E
|-----------------2-|---------------------------------|------------------|
|-------2-2-2-------|-5p2-----------------------------|---------2-2------|
|-------2-2-2-4b6---|-----4p2---4p2---2---------------|---------2-2------|
|---2-2-2-2-2-------|---------4-----4---4p2---2-4p2---|---2-2---2-2---2--|
|---3-4-0-----------|-----------------------4-------4-|-0-3-4-0-------3--|
|-------------------|---------------------------------|------------------|


Fill 3
  E E E.  S S S S S S S S S   E E E E E E E E 
|---------------------------|-----------------|
|---------------------------|---------2-2-----|
|---2-4b6-2-4p2-4p2---4p2---|-2-------2-2-----|
|-2-2---------------4-----4-|---2-2---2-2---2-|
|-4-0-----------------------|---3-4-0-------3-|
|---------------------------|-----------------|





Comments


Popular Led Zeppelin tabs & chords
Dazed And Confused 4 Bass Tabs
Good Times Bad Times 4 Bass Tabs
Most High Bass Tabs
Babe, I'm Gonna Leave You Drum Tabs
All Of My Love Tabs
American Woman Tabs
Bron Y Aur Stomp Complete Tabs
Tangerine 1 Tabs
Tea For One 1 Tabs
Traveling Riverside Blues 1 Tabs


Song lyrics



↑ Back to top | Tablatures and chords are parodies/interpretations of the original songs. You may use it for private study, scholarship, research or language learning purposes only
© 2014 AZChords.com Contact us | Privacy policy | DMCA | Add/correct tabs | Request tabs | Top 50 tabs