>
 >
Hey Hey What Can I Do 4

Hey Hey What Can I Do 4 Guitar Tabs

Led Zeppelin - Hey Hey What Can I Do 4 chords, tabs, tablatures, lyrics

Guitar lessons | Add/correct | Request | Top 50 tabs Artists:  A B C D E F G H I J K L M N O P Q R S T U V W X Y Z 0-9

Hey Hey What Can I Do 4 Guitar Tabs – Led Zeppelin

CD, Sheet music, Poster

Do you like Hey Hey What Can I Do 4? Share with your friends now
Bass TabsChordsChords v2Chords v3Chords v4Chords v5TabsTabs v2Tabs v3Tabs v4Tabs v5Ukulele
Standard E tuning (E,A,D,G,B,e)   it can be played with a capo on the first fret if you want to
 mess around with a different sound.
 this is my first tab so i hope it helps 


e|------------333-333-33------------333-333-33-----------333-333-33---0-0-00|
B|------------333-333-33------------333-333-33-----------333-333-33---1-1-11|
G|---------0--000-000-00---------0--000-000-00--------0--000-000-00---2-2-00|
D|-----0h2----000-000-00------0h2---000-000-00-----0h2---000-000-00---3-3-22|
A|--1/2-------222-222-22---1/2------222-222-22--1/2------222-222-22-------33|
E|------------333-333-33------------333-333-33-----------333-333-33---------|

                   ^ well call that riff #1^

e|---3-33--2-22--0-00--0-00000-00-000000--|---------|                     
B|---3-33--3-33--1-11--1-11111-11-111111--|---------|                     
G|---0-00--2-22--2-22--0-00000-00-000000--|---------|  <----- Verse Riff 
D|---0-00--0-00--3-33--2-22222-22-222222--|----2----| listen to the          
A|---2-22--------------3-03033-03-303030--|-012-2-0-| song for the         
E|---3-33---------------------------------|---------| strum pattern 

throw in some hammer on and pull offs on the A string if your playing alone 
basically to make up for not having a bass 
                                          
e|---3~--3~--0-0--00--0000-000-000000---|
B|---3~--3~--1-1--11--1111-111-111111---| 
G|---0~--0~--2-2--00--0000-000-000000---| listen to the song for the strum  
D|---0~--0~--3-3--22--2222-222-222222---| pattern    
A|---2~--2~-------33--0303-303-303030---|
E|---3~--3~-----------------------------|
  
        ^that would be the chorus^

thats roughly the song, i think the chorus is a little off
 but my immature skills cant comprehend what jimmy page does,
but i think its pretty good compared to other tabs tho.
there are mandolin parts that other tabs have
 transcribed for guitar but i didnt wanna steal
 there tabs so i left the mandolin out. hope it helps 





Comments


Popular Led Zeppelin tabs & chords
Ramble On Bass Tabs
Stairway To Heaven 4 Chords
Hot Dog Drum Tabs
Since Ive Been Loving You Drum Tabs
Black Country Woman Tabs
Black Mountain Side 1 Tabs
For Your Life 1 Tabs
Good Times Bad Times 1 Tabs
Poor Tom 1 Tabs
Rock And Roll 5 Tabs


Song lyrics



↑ Back to top | Tablatures and chords are parodies/interpretations of the original songs. You may use it for private study, scholarship, research or language learning purposes only
© 2014 AZChords.com Contact us | Privacy policy | DMCA | Add/correct tabs | Request tabs | Top 50 tabs