» » »

Led Zeppelin, Hey Hey What Can I Do Tabs (ver.4)

Artists:  A B C D E F G H I J K L M N O P Q R S T U V W X Y Z # 

Hey Hey What Can I Do Tabs (ver.4)

Led Zeppelin Tabs
Rating:
0/5 (0 votes)
Hey Hey What Can I Do lessons Tabs too difficult? Try these video lessons and learn fast
                Hey Hey What Can I do
Led Zeppelin

G|----------------|----------------|----------------|----------------|
D|----------------|----------------|----------------|----------------|
A|----------------|----------------|------------340-|0-0---------340-|
E|----------------|----------------|---------------2|---------------2|

  3/4 time     return to 4/4 time
G|------------|----------------|
D|-------5-5--|----------------|
A|0-0--------5|5---------------|
E|------------|----------------|
  
G|----------------|----------------|----------------|----------------|
D|7------45-54----|-7------420-----|7-------55-4----|-7---420--------|
A|----7-------5---|--5-5--5----420-|----7--7----5-55|5-555---000000--|
E|----------------|----------------|----------------|--------------22|

                                    3/4 time     4/4 time
G|----------------|----------------|------------|----------------|
D|----2--45--4----|-7------420-----|7---5--44--2|0---------------|
A|------------5---|5-5-5--5----420-|------------|----------------|
E|5---------------|----------------|------------|----------------|

G|----------------|--7-------------|----------------|----------------|
D|----------------|-7-7-------7----|----------------|----------------|
A|---------55-5---|----5----78-87--|---------55-5---|-5-5----55-5-555|
E|5---5--3---5----|--------------87|5---5--3---5----|--5-5--5--------|

G|----------------|--7-7--7--------|----------------|--7-------------|
D|----------------|-7-7-----7-577--|----------------|-7-7-----45677--|
A|---------55-5---|----------8---87|---------55-5---|----5--5------87|
E|5---5--3---5----|----------------|5---5--3---5----|----------------|

G|----------------|----------------|----------------|----------------|
D|7---------------|-7------420-----|7-------55-4----|-7---420--------|
A|----7--89-985---|--5-5--5----420-|----7--7----5-55|5-555---000000--|
E|----------------|----------------|----------------|--------------22|

                                    3/4 time     4/4 time
G|----------------|----------------|------------|----------------|
D|-------35--3----|-7------420-----|7---5--44--2|0---------------|
A|----7-------5---|7-7-7--7----420-|------------|----------------|
E|5---------------|----------------|------------|----------------|

G|----------------|--7-------------|----------------|----------------|
D|----------------|-7-7-------7----|----------------|-7-7----77-7-777|
A|---------55-5---|----5----78-87--|---------55-5---|--5-5--5--------|
E|5---5--3---5----|--------------87|5---5--3---5----|----------------|

G|----------------|--7-7--7--------|----------------|--7-------------|
D|----------------|-7-7-----74577--|----------------|-7-7-----45677--|
A|---------55-5---|--------------87|---------55-5---|----5--5------87|
E|5---5--3---5----|----------------|5---5--3---5----|----------------|

G|----------------|----------------|----------457---|----------------|
D|----------------|-7------420-----|-------35-------|-7-7--42---242--|
A|----7--89--8----|--555--5----420-|----7-----------|--5-5---034---34|
E|5--5--------9---|----------------|5--5------------|----------------|

                                    3/4 time     4/4 time
G|---------7--7---|-4--------------|------------|----------------|
D|--------5--5----|--75----420-----|7--75-------|----------------|
A|----7--8--------|----5--5----4200|-------79--7|5---------------|
E|5--5------------|----------------|------------|----------------|

G|----------------|--7-------------|----------------|--7-------------|
D|----------------|-7-7------4577--|----------------|-7-7--------97--|
A|---------55-5---|----5--555----97|---------55-5---|----5--55555---7|
E|5---5--3---5----|----------------|5---5--3---5----|----------------|

G|----------------|--7-------------|----------------|----------------|
D|----------------|-7-7------------|----------------|567-------4-----|
A|---------55-5---|----5---55420---|---------55-5--5|---5---557------|
E|5---5--3---5----|-------5-----035|5---5--3---5----|-----------5-503|

G|----------------|------7---------|----------------|---7------------|
D|----------------|-------9-7-442--|----------------|-77---------77--|
A|---------55-5---|--------------32|---------55-5---|----5---578---87|
E|5---5--3---5----|----------------|5---5--3---5----|----------------|

G|----------------|------7---------|----------------|---7------------|
D|----------------|-------9-7-442--|----------------|-77---------77--|
A|---------55-5---|--------------32|---------55-5---|----5---578---87|
E|5---5--3---5----|----------------|5---5--3---5----|----------------|

G|----------------|------7---------|----------------|----------------|
D|----------------|-------9-6-442--|----------------|----------------|
A|---------55-5---|--------------32|----------------|----------------|
E|5---5--3---5----|----------------|5---5-----------|----------------|


Wanna tell you 'bout the girl I love
My, she looks so fine
She's the only one that I been dreamin' of
Maybe someday she will be all mine
I wanna tell her that I love her so
An' thrill her with my every touch
I need to tell her she's the only one I really love

I got a woman wanna ball all day
I got a woman she won't be true, no
I got a woman stay drunk all the time
I said I got a little woman and she won't be true

Sunday morning when we go down to church
See the menfolk standin' in line
Who say they come to pray to the Lord
With my little girl, looks so fine
In the evening when the sun is sinkin' low
Everybody's with the one they love
I walk the town, keep a-searchin' all around
Lookin' for my street corner girl

I got a woman wanna ball all day
I got a woman she won't be true, no no
I got a woman stay drunk all the time
I said I got a little woman and she won't be true

An' in the bars, with the men who play guitars
Singin', drinkin' and rememberin' the times
My little lover does a midnight shift
She's followed around all the time
I guess there's just one thing a-left for me to do
Gonna pack my bags and move on my way
'Cause I got a worried mind, sharin' what I thought was mine
Gonna leave her where the guitars play

I've got a woman, she won't be true, no no
I got a woman wanna ball all day, yeah yeah, now now
I got a woman, stay drunk all the time
I got a little woman and she won't be true

Hey, hey what can I do
I said she wont be true no
Yeah-no, yeah-no,
Whoa ohh, what can I say
Yeah-no, yeah-no, ahhhhh

Hey, hey what can I do, ahhhh
Keep ballin', keep ballin',
Keep ballin', keep ballin',
Keep ballin', keep ballin',
Keep ballin', whoa ohh
What can I say, ahhhh
She wanna ball

Hey, hey what can I do
A-keep ballin', keep ballin'
Keep ballin', keep ballin'
Keep ballin' yeah, yeah
Whoa ohh,what can I say
A-boogie, a-boogie chillin'
A-boogie, a-boogie chillin'

Hey, hey what can I do
Hah yeah, ah yeah, ah yeah, ah yeah
Whoa ohh, what can I say
Hey, hey what can I do
I got a woman, she won't be true

Hey, hey what can I do
Ah whoa whoa whoa hear what I say
I got a woman, wanna ball all day
Whoa ohh what can I say
Keep ballin', keep ballin'

Whoa oh oh oh oh
Hey, hey what can I do
Oohhhhhhhhhhhhhhh

Led Zeppelin Is #1 Band
            
Submit corrections

comments powered by Disqus
↑ Back to top | Led Zeppelin Tabs for Hey Hey What Can I Do. Lyrics for acoustic guitar and electric guitar. Tablatures and chords are parodies/interpretations of the original songs. You may use it for private study, scholarship, research or language learning purposes only