» » »

Led Zeppelin, Heartbreaker Riffs Tabs (ver.1)

Artists:  A B C D E F G H I J K L M N O P Q R S T U V W X Y Z # 

Heartbreaker Riffs Tabs (ver.1)

Led Zeppelin Tabs
 Rating:
4/5 (4 votes)
Heartbreaker Riffs lessons Tabs too difficult? Try these video lessons and learn fast
1
                this one is for dan and me the 2 man band 

rember dan buddy holly




[Riff 1]
e:-------|-----------------------|-----------------------------------|
B:-------|-----------------------|-----------------------------------|
G:-------|-----------------------|-----------------------------------|
D:-------|-----------0--1-2------|---------------0--1-2--------------|
A:-------|---0--3~---------------|---0-0-0-0-3~----------------------|
E:--3b---|------------------3b---|-----------------------3b----------|

[Riff 2]
e:--------------------|----------------------------------------------|
B:--------------------|----------------------------------------------|
G:--------------------|----------------------------------------------|
D:--------2--3-4------|-------------2--3-4---------------------------|
A:--2--5--------------|--2-2-2-2-5-----------------------------------|
E:----------------5b--|---------------------5b-----------------------|

[Riff 3]
e:------------------------|------------------------------------------|
B:------------------------|------------------------------------------|
G:------------------------|------------------------------------------|
D:------------3--4-5------|---------------3--4-5---------------------|
A:--3~---6~---------------|---3-3-3-3-6~-----------------------------|
E:--------------------6b--|-----------------------6b-----------------|

[Riff 4]
e:-----------------------|-------------------------------------------|
B:-----------------------|-------------------------------------------|
G:-----------------------|-------------------------------------------|
D:-----------5--6-7------|---------------5--6-7----------------------|
A:--5~---8~--------------|---5-5-5-5-8~------------------------------|
E:------------------8b---|----------------------8b-------------------|

[Riff 5]
e:---------------------------|---------------------------------------|
B:---------------------------|---------------------------------------|
G:---------------------------|---------------------------------------|
D:------------7--8-9---------|-------------------7--8-9--------------|
A:--7~--10~------------------|----7-7-7-7--10~-----------------------|
E:--------------------10b----|---------------------------10b---------|

[Fill 1]
e:-------------------------------------------------------------------|
B:-------------------------------------------------------------------|
G:------7---7---7---7-7-7--9-9-9-------------------------------------|
D:--7s9---9---9---9--------------------------------------------------|
A:-------------------------------------------------------------------|
E:-------------------------------------------------------------------|
            
Submit corrections

comments powered by Disqus
↑ Back to top | Led Zeppelin Tabs for Heartbreaker Riffs. Lyrics for acoustic guitar and electric guitar. 1 Tablatures and chords are parodies/interpretations of the original songs. You may use it for private study, scholarship, research or language learning purposes only