>
 >
Heartbreaker 8

Heartbreaker 8 Guitar Tabs

Led Zeppelin - Heartbreaker 8 chords, tabs, tablatures, lyrics

Guitar lessons | Add/correct | Request | Top 50 tabs Artists:  A B C D E F G H I J K L M N O P Q R S T U V W X Y Z 0-9

Heartbreaker 8 Guitar Tabs – Led Zeppelin

CD, Sheet music, Poster

Do you like Heartbreaker 8? Share with your friends now
Bass TabsBass Tabs v2Bass Tabs v3Bass Tabs v4Bass Tabs v5ChordsDrum TabsTabsTabs v2Tabs v3Tabs v4Tabs v5Tabs v6Tabs v7Tabs v8Ukulele
e:--------------------|--------------------|-------------------------|
B:--------------------|--------------------|-------------------------|
G:--2~~~h5p2p0--------|--2~~~h5p2p0--------|-------------------------|
D:--------------2p0---|-------------2p0----|-------------------------|
A:------------------3-|-----------------3--|-------------------------|
E:--------------------|--------------------|-------------------------|

e:-------------------------------------------------------------------|
B:-------------------------------------------------------------------|
G:-2~~h5p2p0h5p2p0h5p2p0h5p2p0h5p2p0h5p2p0-h5b8r7p2p0-h5b8r7p2p0-----|
D:-------------------------------------------------------------------|
A:-------------------------------------------------------------------|
E:-------------------------------------------------------------------|
					

e:-------------------------------------------------------------------|
B:-------------------------------------------------------------------|
G:-h5b8r7p2p0-h5b8r7p2p0-h5b8r7p2p0-h5b8r7p2p0---5b9r5b9r5b9r5b9r5---|
D:-------------------------------------------------------------------|
A:-------------------------------------------------------------------|
E:-------------------------------------------------------------------|
 
e:----------------|-----------------------|--------------------------|
B:----------------|-----------------------|--------------------------|
G:----5-7b9-7b9---|-----5--7b9-7b9r7-5----|----5-7b9r7b9r7b9r7b9~----|
D:--7-------------|--7-----------------7--|--7-----------------------|
A:----------------|-----------------------|--------------------------|
E:----------------|-----------------------|--------------------------|

e:-------------------------------------------------------------------|
B:------------------------------------------5-5--8p5-5---5-5--8p5----|
G:-7b9r7-5-----7b9r7-5-----7b9r7-5----5-7b-------------7----------7b9|
D:---------7-----------7-----------7---------------------------------|
A:-------------------------------------------------------------------|
E:-------------------------------------------------------------------|

e:-------------------------------------8p5-7---------8p5-7-----5h8p5-|
B:--5-8p5--5-5-5-5-8p5-------5--8p5-5--------5h7--5--------5h7-------|
G:---------------------7--7b-----------------------------------------|
D:-------------------------------------------------------------------|
A:-------------------------------------------------------------------|
E:-------------------------------------------------------------------|

e:------8p5-7p5--5------5---8--11--11p8---10p8-8---------------------|
B:-7-5-------------/10----------------------------8h10---------------|
G:-----------------------------------------------------8-9-8-8-9--6-7|
D:-------------------------------------------------------------------|
A:-------------------------------------------------------------------|
E:-------------------------------------------------------------------|

e:-------------------------------------------------------------------|
B:-------------------------------------------------------------------|
G:--7---4-5-4--------------4-5p4-------------------------------------|

A:----------------0-7---------------0-------------7-------7-0-0-4-3--|
E:-------------------------------------------------------------------|

e:-----------|------------------------5------------------------------|
B:-----------|---------------------5-----8p5-------------------------|
G:-----------|-------------2--4s6--------------7b9--8p7-5--7p5-------|
D:-----------|---------2-4-------------------------------------7p5---|
A:--5-3-4----|-0--2-4----------------------------------------------7-|
E:--------3~-|-------------------------------------------------------|

e:----------------------------------5--------------------------------|
B:--------------------------------5---8p5-8p5------------------------|
G:---------5--7--5h7p5---5-7--7b9-------------7-8-8b---5-5h7--5----5-|
D:--5h6h7--------------7----------------------------------------7----|
A:-------------------------------------------------------------------|
E:-------------------------------------------------------------------|

e:--------------5--5-------------------------------------------------|
B:------------5-------8~~-----------9-------7-------5-----4-----3~~-|
G:--5--5h6--6--------------------------------------------------------|
D:---------------------------0---9------7-------6------5-----4~~~~~-|
A:-------------------------------------------------------------------|
E:-------------------------------------------------------------------|


e:-------------------------------------------------------------------|
B:---2------3------5-------7-----5------3----------------------------|
G:---0------0------0-------0-----0------0----------------------------|
D:---2------4------5-------7-----5------4----------------------------|
A:---0------0---------------------------0----------------------------|
E:-------------------------------------------------------------------|



	e:--3~~--------------------5~~------------------|
	B:--1~~--------------------3~~------------------|
     -- G:--0~~--------------------0~~------------------| --
     |	D:--2~~--------------------4~~------------------|  |
     |	A:--0~~--------------------0~~------------------|  |
     |	E:----------------------------------------------|  |
     |							   |
     |	e:----------------------|-----------------------|  |
     |	B:----------------------|-----------------------|  |
     |	G:----------------------|-----------------------|  |
     -- D:------------5-5--4--2-|------------5-5--4--2--| --
	A:--0~---3-4------------|--0~---3-4-------------|
	E:----------------------|-----------------------|



e:------------------------------------5----------8-9--10p9-10p8-10b12|
B:------------------------------5--7-----/10~~-----------------------|
G:------------2-------2-2--5-6---------------------------------------|
D:------------2---4--------------------------------------------------|
A:-------3s4---------------------------------------------------------|
E:--4s5--------------------------------------------------------------|

e:-10b12-10b12r10---8-9-10-8-9---------------------------------------|
B:------------------------------10--10b12-10b11-10b11-10b11-10b11-10-|
G:-------------------------------------------------------------------|
D:-------------------------------------------------------------------|
A:-------------------------------------------------------------------|
E:-------------------------------------------------------------------|

e:-----------------12--12b14~---12b14--12b13--12b14-12b13--12b15~----|
B:----8---------10---------------------------------------------------|
G:-----------11------------------------------------------------------|
D:-------------------------------------------------------------------|
A:-------------------------------------------------------------------|
E:-------------------------------------------------------------------|

e:--12b14--12b13r12p10-----10----------------------------------------|
B:---------------------13-----13---10h13p10----10-13-10h13p10-----10-|
G:------------------------------------------12----------------12-----|
D:-------------------------------------------------------------------|
A:-------------------------------------------------------------------|
E:-------------------------------------------------------------------|

e:-------------------------------------------------------------------|
B:-13-10h13p10-----10-13-10h13p10-----10-13--10-12-10-10h12p10----10-|
G:-------------12-----------------12---------------------------11----|
D:-------------------------------------------------------------------|
A:-------------------------------------------------------------------|
E:-------------------------------------------------------------------|

e:-------------------------------------------------------------------|
B:--13p10-12p10-----10h13p10--10h12p10-----10h13p10-12-10-10-13b15---|
G:--------------11---------------------11----------------------------|
D:-------------------------------------------------------------------|
A:-------------------------------------------------------------------|
E:-------------------------------------------------------------------|

e:-------------------------------------------------------------------|
B:--13b17~----10----13p10-----10--13b17~~~--13b17~~--13b17--10-----13|
G:---------------13-------13-----------------------------------12----|
D:-------------------------------------------------------------------|
A:-------------------------------------------------------------------|
E:-------------------------------------------------------------------|

e:--------------------------|
B:--10------------5--5------|
G:----------7b9-------------|
D:--------------------------|
A:--------------------------|
E:--------------------------|
D:---7---5---7~--10--7--5----|
A:---7---5---7~--10--7--5----|
E:---------------------------|

e:---------------------------------------------------5---------------|
B:-------------------------------------------------5---/10~~-10b13---|
G:--------------------------------------2---4--5s6-------------------|
D:----7-------------------------------2---4--------------------------|
A:-------3--0-0----------------3s4-----------------------------------|
E:----------------3--3--5--5-----------------------------------------|

e:-------------------------------------------------------------------|
B:--10b11-10b13-10b11-10b14-10b14~~~~~---10b13r10--------8--8--8--8--|
G:---------------------------------------------------/7--9--9--9--9--|
D:-------------------------------------------------------------------|
A:-------------------------------------------------------------------|
E:-------------------------------------------------------------------|

				    e:---------------------------------------14p12-----14p12-----14p12---|
B:--8---8---8-8-8-8--8-8-8-8--8-8-8-8----------13--------13--------13|
G:--9---9---9-9-9-9--9-9-9-9--9-9-9-9--------------------------------|
D:-------------------------------------------------------------------|
A:-------------------------------------------------------------------|
E:-------------------------------------------------------------------|

e:--14p12------14--12---12--12---------15----15----15~---15~---15~---|
B:--------13------------12--13-----/17----17----17----17----17----17|
G:-------------------------------------------------------------------|
D:-------------------------------------------------------------------|
A:-------------------------------------------------------------------|
E:-------------------------------------------------------------------|
D:------------6-5------4-5--------7----7-7--4h5p4---4h5p4------------|





Comments


Popular Led Zeppelin tabs & chords
Good Times Bad Times 1 Bass Tabs
Down By The Seaside Drum Tabs
Rock And Roll Drum Tabs
No Quarter Live Tabs
Nobody's Fault But Mine 1 Tabs
Stairway To Heavin Tabs
Tangerine 2 Tabs
Ten Years Gone Outro Tabs
The Girl I Love She Got Long Black Wavy Hair 2 Tabs
You Shook Me Tabs


Song lyrics



↑ Back to top | Tablatures and chords are parodies/interpretations of the original songs. You may use it for private study, scholarship, research or language learning purposes only
© 2014 AZChords.com Contact us | Privacy policy | DMCA | Add/correct tabs | Request tabs | Top 50 tabs