>
 >
Heartbreaker 6

Heartbreaker 6 Guitar Tabs

Led Zeppelin - Heartbreaker 6 chords, tabs, tablatures, lyrics

Guitar lessons | Add/correct | Request | Top 50 tabs Artists:  A B C D E F G H I J K L M N O P Q R S T U V W X Y Z 0-9

Heartbreaker 6 Guitar Tabs – Led Zeppelin

CD, Sheet music, Poster

Do you like Heartbreaker 6? Share with your friends now
Bass TabsBass Tabs v2Bass Tabs v3Bass Tabs v4Bass Tabs v5ChordsDrum TabsTabsTabs v2Tabs v3Tabs v4Tabs v5Tabs v6Tabs v7Tabs v8Ukulele
	Led Zeppelin
	"Heartbreaker"
	Led Zeppelin II
	Atlantic Records 1969


Tuning: EADGBE (A=445)


Intro
=====

e:-----|-------------------------------------------
B:-----|-------------------------------------------
G:-----|-------------------------------------------
D:-----|-------0--1-2------------------0--1-2------
A:-----|-0--3---------------0-0-0-0-3--------------
E:-3b5-|---------------3b5--------------------3b5--



Chorus
======

e:------------------------------------------
B:------------------------------------------
G:------------------------------------------
D:-------0--1-2-----------------0--1-2------ x2
A:-0--3--------------0-0-0-0-3--------------
E:--------------3b5--------------------3b5--

e:------------------------------------------
B:------------------------------------------
G:------------------------------------------
D:-------2--3-4-----------------2--3-4------
A:-2--5--------------2-2-2-2-5--------------
E:--------------5b7--------------------5h7--

e:------------------------------------------
B:------------------------------------------
G:------------------------------------------
D:-------0--1-2-----------------0--1-2------
A:-0--3--------------0-0-0-0-3--------------
E:--------------3b5--------------------3b5--



Verse
=====

e:--------------------------------------------------
B:-------7-------7-------7-------7-----7---7---7----
G:-2-----7-6-----7-6-----7-6-----7-6---7-6-7-6-7-6--
D:-2-----7-7-----7-7-----7-7-----7-7---7-7-7-7-7-7--
A:-0-----5-7-----5-7-----5-7-----5-7---5-7-5-7-5-7--
E:---------5-------5-------5-------5-----5---5---5--



After verse 2
=============

e:------------------------------------------
B:------------------------------------------
G:------------------------------------------
D:-------3--4-5-----------------3--4-5------ x2
A:-3--6--------------3-3-3-3-6--------------
E:--------------6b8--------------------6b8--

e:--------------------------------------------
B:--------------------------------------------
G:--------------------------------------------
D:-------5--6-7------------------5--6-7-------
A:-5--8---------------5-5-5-5-8---------------
E:--------------8b10--------------------8b10--

e:------------------------------------------------
B:------------------------------------------------
G:------------------------------------------------
D:--------7--8-9--------------------7--8-9--------
A:-7--10----------------7-7-7-7-10----------------
E:---------------10b12---------------------10b12--

e:---------------------------------
B:---------------------------------
G:-----7---7-7-7---7-7-7---7-9-----
D:---9---9-------9-------9--------- x2
A:---------------------------------
E:---------------------------------

e:-----------------
B:-9-9-9-9-9-9-9-9-
G:-9-9-9-9-9-9-9-9- 
D:-9-9-9-9-9-9-9-9- x4
A:-7-7-7-7-7-7-7-7-
E:-----------------



Bridge
======
v These lines aren't measures

e:--------------------
B:--------------------
G:--------------------
D:-7---10p7----------- x2
A:----------10p9p7----
E:-----------------11-

e:-----------------------------------------------------
B:-----------------------------------------------------
G:-----------------------------------------------------
D:-7---10p7----10p7----10p7----10p7----10p7----10p7----
A:----------10------10------10------10------10------10-
E:-----------------------------------------------------

e:-----------
B:-----------
G:-7b10------
D:------10-7- x6
A:-----------
E:-----------

e:----------------------
B:----------------------
G:-7b9b7b9b7b9b7--------
D:---------------10-----
A:----------------------
E:----------------------

e:-------------------------------
B:-------------------------------
G:------7-7b9--------7-7h9p7-----
D:-7-10---------7-10---------7---
A:-------------------------------
E:-------------------------------

e:-----------------------
B:-----------------------
G:------7b9b7b9b7b9b7----
D:-7-10------------------
A:-----------------------
E:-----------------------

e:----------    --------
B:----------    --------
G:-9-7------    --------
D:-----10-7- x4 7-10-12-
A:----------    --------
E:----------    --------

v It starts getting VERY fast here

e:-------------------|-------------------
B:-13-12----12-------|-13----12----------
G:-------14----14-12-|----14-------12-14-
D:-------------------|----------14-------
A:-------------------|-------------------
E:-------------------|-------------------
^ repeat each section a few times

e:----------------------------------------------
B:-13-12----------------------------------------
G:-------14-12----------------------------------
D:-------------14-12----------------------------
A:-------------------15-12-10-------------------
E:----------------------------12-10--12--8--10--
{Random picking-----------------}

e:----------------------------------------------5-8-----
B:------------------------------------------5-8-----5-8-
G:------------------------------5-7-----5-7-------------
D:------------------5-7-----5-7-----5-7-----------------
A:--------------5-7-----5-7-----------------------------
E:-4--5--6--5-8-----------------------------------------
{           Random picking-----------------------------}

e:----------------5--5-------
B:-------5--5--5--------8----
G:---5-7---------------------
D:-7-------------------------
A:---------------------------
E:---------------------------

e:------------------------------
B:---9----7----5----4----3--\\--
G:------------------------------
D:-9----7----6----5----4----\\--
A:------------------------------
E:------------------------------

e:-----------------------
B:-2---3---5---7---5--4--
G:-x---x---x---x---x--x--
D:-2---4---5---7---5--4--
A:-----------------------
E:-----------------------



Interlude
=========

Guitar 1:
Play each measure multiple times

e:-----------------------
B:-2---3---5---7---5--4--
G:-x---x---x---x---x--x--
D:-2---4---5---7---5--4--
A:-----------------------
E:-----------------------

e:---------------------------
B:---------------------------
G:---------------------------
D:----------------5--5-4--2--
A:-0--0-3--3-4--4------------
E:---------------------------

e:-------------------------
B:-------------------------
G:-6---4---6---9---6---4---
D:-7---5---7---10--7---5---
A:-7---5---7---10--7---5---
E:-5---3---5---8---5---3---

e:-----------------
B:-----------------
G:-2-2-2-2-2-2-2-2-
D:-2-2-2-2-2-2-2-2-
A:-0-0-0-0-0-0-0-0-
E:-----------------

Guitar 2:
One note every measure

e:-------
B:-------
G:-2-----
D:-2-----
A:-0-----
E:-------

Guitar 3:

e:-3-----2-----3-----2-----
B:-3-----3-----3-----3-----
G:-4-----2-----4-----2-----
D:-5-----0-----5-----0-----
A:-------------------------
E:-------------------------

e:----------------------------------
B:----------------------8-10-8b10---
G:------------------7-9-------------
D:-------------7-10-----------------
A:--------7-10----------------------
E:-5-8-10---------------------------

e:------8b10-8-8b10-8-8b10-10-10b12b10-
B:-8-10--------------------------------
G:-------------------------------------
D:-------------------------------------
A:-------------------------------------
E:-------------------------------------

e:----9-10----10-----------------------------
B:-12------11----10--12-12-12-12-12-10-------
G:--------------------------------------12---
D:-------------------------------------------
A:-------------------------------------------
E:-------------------------------------------

e:----10-12-12b14-12-12b14-12-12b14--12-10----------
B:-12--------------------------------------13-15----
G:-----------------------------------------------14-
D:--------------------------------------------------
A:--------------------------------------------------
E:--------------------------------------------------

e:-------------------
B:-------------------
G:-14h17p14----14-17-
D:----------17------- x4
A:-------------------
E:-------------------

e:-------------------
B:-------------------
G:-17-16-14-16----14-
D:-------------17---- x4
A:-------------------
E:-------------------

e:-------------------------------
B:-15b17-15b17b15-13----13----13-
G:-------------------14----14----
D:-------------------------------
A:-------------------------------
E:-------------------------------

e:------------------------------
B:-15b17-15b17-13-------13------
G:----------------14-12----14---
D:------------------------------
A:------------------------------
E:------------------------------

e:-----5-------------------------------------------
B:-------8-5---------------------------------------
G:-7b9-------7-5-------5---------------------------
D:---------------7-5-7---7-5-------5-----------5-7-
A:---------------------------7-5-7---7-5---5-7-----
E:---------------------------------------8---------
{      Random picking-----------------------------}

e:----------------------------------------------
B:-------8-10-8b10-8b10-13-10-13-10-13-10-13-10-
G:---5-7----------------------------------------
D:-7--------------------------------------------
A:----------------------------------------------
E:----------------------------------------------

e:---------------------------------------
B:-------8-8-8-8-8-8-8-8-8-8-8-8-8-8-8-8-
G:-------6-6-6-6-6-6-6-6-6-6-6-6-6-6-6-6-
D:-----0-7-7-7-7-7-7-7-7-7-7-7-7-7-7-7-7-
A:---0---7-7-7-7-7-7-7-7-7-7-7-7-7-7-7-7-
E:-0-------------------------------------

e:-14-12----14-12----14-12----14-12----14-12-
B:-------13-------13-------13-------13-------
G:-------------------------------------------
D:-------------------------------------------
A:-------------------------------------------
E:-------------------------------------------

e:----13----13----13----13-13\\-----
B:-15----15----15----15----15\\-----
G:----------------------------------
D:----------------------------------
A:----------------------------------
E:----------------------------------



Ending
======

e:------------------------------------------
B:------------------------------------------
G:------------------------------------------
D:-------0--1-2-----------------0--1-2------
A:-0--3--------------0-0-0-0-3--------------
E:--------------3b5--------------------3b5--

e:------------------
B:------------------
G:------------------
D:-------0--1-2-----
A:-0--3-------------
E:--------------3---





Comments


Popular Led Zeppelin tabs & chords
Dazed And Confused 5 Bass Tabs
Black Country Woman Chords
Black Country Woman Tabs
Bring It On Home Tabs
Darlene Tabs
Heartbreaker 1 Tabs
Kashmir 4 Tabs
Rock And Roll 5 Tabs
Thank You Tabs
Gallows Pole Ukulele


Song lyrics



↑ Back to top | Tablatures and chords are parodies/interpretations of the original songs. You may use it for private study, scholarship, research or language learning purposes only
© 2014 AZChords.com Contact us | Privacy policy | DMCA | Add/correct tabs | Request tabs | Top 50 tabs