» » »

Heartbreaker Bass tabs (ver.5)

Artists:  A B C D E F G H I J K L M N O P Q R S T U V W X Y Z # 

Heartbreaker Bass tabs (ver.5)

Led Zeppelin
Rating:
0/5 (0 votes)

Hard to play? Try these video lessons and learn fast.
                Band: Led Zeppelin
Tuning: EADG

Guitar plays the main riff once, then:

MAIN RIFF:
|--------------------------------------|
|--------------------------------------|
|---3--5-6-7--------------3--5-6-7-----|
|-5----------3^4--5-5-5-5----------3^4-| 2X 

|--------------------------------------|
|--------------------------------------|
|---5--7-8-9--------------5--7-8-9-----|
|-7----------5^6--7-7-7-7----------5^6-|

|--------------------------------------|
|--------------------------------------|
|---3--5-6-7--------------3--5-6-7-----|
|-5----------3^4--5-5-5-5----------3^4-|

VERSE:
Many people like to play it an octave higher than this, but this is what I believe it truly is.

|----------------------|
|----------------------|
|-------5--------------|
|-5-5/8---5-5/8-8-8-8/5|

AFTER VERSE:
|--------------|
|--------------|
|-5---5---5----|
|---5---5---5\-|

MAIN RIFF:
|--------------------------------------|
|--------------------------------------|
|---3--5-6-7--------------3--5-6-7-----|
|-5----------3^4--5-5-5-5----------3^4-| 2X 

|--------------------------------------|
|--------------------------------------|
|---5--7-8-9--------------5--7-8-9-----|
|-7----------5^6--7-7-7-7----------5^6-|

|--------------------------------------|
|--------------------------------------|
|---3--5-6-7--------------3--5-6-7-----|
|-5----------3^4--5-5-5-5----------3^4-|

VERSE:
|----------------------|
|----------------------|
|-------5--------------|
|-5-5/8---5-5/8-8-8-8/5|

AFTER VERSE:
|--------------|
|--------------|
|-5---5---5----|
|---5---5---5\-|

BRIDGE: (ascending part)
|----------------------------------------|
|----------------------------------------|
|---6--8-9-10--------------6--8-9-10-----|
|-8-----------6^7--8-8-8-8-----------6^7-| 2X 

|-------------------------------------------------|
|-------------------------------------------------|
|----8--10-11-12------------------8--10-11-12-----|
|-10-------------8^9--10-10-10-10-------------8^9-|

|-------------------------------------------------------|
|-------------------------------------------------------|
|----10--12-13-14--------------------10--12-13-14-------|
|-12--------------10^11--12-12-12-12--------------10^11-|

right after "When I try to make love to you!":
|-----------------------------------|
|-2-2-2-2-2--2-2-0------------------|
|------------------4-2--------------|
|----------------------3-0--0-0-0-0-| 2X

|-------------------------------------------|
|-------------------------------------------|
|-7-7-7-7-7-7-----7-7-7-7-7-7-7-7-7-7-7-7-7-|
|-------------0-0---------------------------|

[BREAK]

GUITAR SOLO: (after the "shredding" part)
guitar plays riff once then:
|--------------|      
|-----5--4-5-4-|
|---5----------|
|-5------------| 3X   

|----------------|
|----------------|
|---3-4-5--7-5-3-|
|-5--------------| 12X

|--------------------------|
|--------------------------|
|-------3--------3---3-----|
|-5-3-5---5-3--5---5---5-3-|

|---------------------------------------|
|---------------------------------------|
|-------------------------------5-5-6-7-|
|-5-5-5-5-5-5-5-5-5-5-5-5-5-5-5---------|

|---------|
|---------|
|---------|
|-5-5-5-5-| 5X


VERSE VARIATION:
|--------------------|
|--------------------|
|------------------5-|
|-5-5/8--5-5/8-8-8---|

AFTER VERSE:
|--------------|
|--------------|    (ON THE SECOND TIME SLIDE
|-5---5---5----|      DOWN TO 0 AT THE END)
|---5---5---5--| 2X 

MAIN RIFF:
|--------------------------------------|
|--------------------------------------|
|---3--5-6-7--------------3--5-6-7-----|
|-5----------3^4--5-5-5-5----------3^4-| 2X

FIN
            
Hard to play? Try these video lessons and learn fast. | Correct




comments powered by Disqus
↑ Back to top | Tablatures and chords are parodies/interpretations of the original songs. You may use it for private study, scholarship, research or language learning purposes only