» » »

Heartbreaker Tabs (ver.8)

Artists:  A B C D E F G H I J K L M N O P Q R S T U V W X Y Z # 

Heartbreaker Tabs (ver.8)

Led Zeppelin
Rating:
0/5 (0 votes)

Hard to play? Try these video lessons and learn fast.
                ****************************************************************************

Band: Led Zeppelin
Tuning: Standard


-----------------------------------------------------------------------------
Hey guyz, Pabloski here, so, lets see Led Zeppelin's Heartbreaker riff, ok lets begin:

-----------------------------------------------------------------------------
                                =Legend=
                       b = bend
                       s = slide
                       h* = hammer on
                       p* = pull of
                       PM = palm mute
                       ° = harmonic
                       ~ = vibrato
                       / = slide up from infinity notes
                       \ = slide down from infinity notes

*****************************************************************************



Intro:

-----------------------------------------------------------------------------|
-----------------------------------------------------------------------------|
-----------------------------------------------------------------------------|
-----------------------------------------------------------------------------|
-----------5-6-7----------------5-6-7----------------------------------------|
--3b--5-8--------5---5-5-5-5-8--------3b-------------------------------------|

-So you play that and you repeat it 2 times more when the drum line starts-

-Then do this-

-When you do the principal riff 3 times, you slide from the 5th fret of the E string to 
7th fret and repeat


--------------------------------------------------------------------------|
--------------------------------------------------------------------------|
--------------------------------------------------------------------------|
--------------------------------------------------------------------------|
------------7-8-9---------------7-8-9-------------------------------------|
3b--5s7--10-------7--7-7-7-7-10-------5b----------------------------------|


-When finished this variant, play again the first riff part, but only one time-

*****************************************************************************

-The second part are the fills and the solo, lets see "Fill 1" that comes next from 
playing 3 times main riff, 1 time the variation and another 1 time the main riff-

Fill 1

--------------------------------------------------------------------------|
--------3-----------3---------3-------3----3---3---3----------------------|
--------2-2---------2-2-------2-2-----2-2--2-2-2-2-2-2--------------------|
-2--------2-----------2---------2-------2----2---2---2--------------------|
-2------------------------------------------------------------------------|
-0-------------0PM--------------------------------------------------------|



Solo

:--------------------|--------------------|-------------------------|
:--------------------|--------------------|-------------------------|
:--2~~~h5p2p0--------|--2~~~h5p2p0--------|-------------------------|
:--------------2p0---|-------------2p0----|-------------------------|
:------------------3-|-----------------3--|-------------------------|
:--------------------|--------------------|-------------------------|

:-------------------------------------------------------------------|
:-------------------------------------------------------------------|
:-2~~h5p2p0h5p2p0h5p2p0h5p2p0h5p2p0h5p2p0-h5b8r7p2p0-h5b8r7p2p0-----|
:-------------------------------------------------------------------|
:-------------------------------------------------------------------|
:-------------------------------------------------------------------|
					     *		*

:-------------------------------------------------------------------|
:-------------------------------------------------------------------|
:-h5b8r7p2p0-h5b8r7p2p0-h5b8r7p2p0-h5b8r7p2p0---5b9r5b9r5b9r5b9r5---|
:-------------------------------------------------------------------|
:-------------------------------------------------------------------|
:-------------------------------------------------------------------|
     *		*	   *	      * 	  *   *   *   *

:----------------|-----------------------|--------------------------|
:----------------|-----------------------|--------------------------|
:----5-7b9-7b9---|-----5--7b9-7b9r7-5----|----5-7b9r7b9r7b9r7b9~----|
:--7-------------|--7-----------------7--|--7-----------------------|
:----------------|-----------------------|--------------------------|
:----------------|-----------------------|--------------------------|

:-------------------------------------------------------------------|
:------------------------------------------5-5--8p5-5---5-5--8p5----|
:-7b9r7-5-----7b9r7-5-----7b9r7-5----5-7b-------------7----------7b9|
:---------7-----------7-----------7---------------------------------|
:-------------------------------------------------------------------|
:-------------------------------------------------------------------|

:-------------------------------------8p5-7---------8p5-7-----5h8p5-|
:--5-8p5--5-5-5-5-8p5-------5--8p5-5--------5h7--5--------5h7-------|
:---------------------7--7b-----------------------------------------|
:-------------------------------------------------------------------|
:-------------------------------------------------------------------|
:-------------------------------------------------------------------|

:------8p5-7p5--5------5---8--11--11p8---10p8-8---------------------|
:-7-5-------------/10----------------------------8h10---------------|
:-----------------------------------------------------8-9-8-8-9--6-7|
:-------------------------------------------------------------------|
:-------------------------------------------------------------------|
:-------------------------------------------------------------------|

:-------------------------------------------------------------------|
:-------------------------------------------------------------------|
:--7---4-5-4--------------4-5p4-------------------------------------|
:------------6-5------4-5--------7----7-7--4h5p4---4h5p4------------|
:----------------0-7---------------0-------------7-------7-0-0-4-3--|
:-------------------------------------------------------------------|

:-----------|------------------------5------------------------------|
:-----------|---------------------5-----8p5-------------------------|
:-----------|-------------2--4s6--------------7b9--8p7-5--7p5-------|
:-----------|---------2-4-------------------------------------7p5---|
:--5-3-4----|-0--2-4----------------------------------------------7-|
:--------3~-|-------------------------------------------------------|

:----------------------------------5--------------------------------|
:--------------------------------5---8p5-8p5------------------------|
:---------5--7--5h7p5---5-7--7b9-------------7-8-8b---5-5h7--5----5-|
:--5h6h7--------------7----------------------------------------7----|
:-------------------------------------------------------------------|
:-------------------------------------------------------------------|

:--------------5--5-------------------------------------------------|
:------------5-------8~~-----------9-------7-------5-----4-----3~~\-|
:--5--5h6--6--------------------------------------------------------|
:---------------------------0---9------7-------6------5-----4~~~~~\-|
:-------------------------------------------------------------------|
:-------------------------------------------------------------------|

*****************************************************************************

Progression:

Riff 1 x3
Riff 2 x1
Riff 1 x1
Fill 1 x1
Riff 1 x3
Riff 2 x1
Riff 1 x1
Random Fills x2
Fill x1
=Solo=
Riff 1 x4
Random Picking
Fill 1 x2
Riff 1 x2
-----------------------------------------------------------------------------

Note, the random things are rare, so i dont tabed it....
            
Hard to play? Try these video lessons and learn fast. | Correct




comments powered by Disqus
↑ Back to top | Tablatures and chords are parodies/interpretations of the original songs. You may use it for private study, scholarship, research or language learning purposes only