» » »

Heartbreaker Bass tabs (ver.4)

Artists:  A B C D E F G H I J K L M N O P Q R S T U V W X Y Z # 

Heartbreaker Bass tabs (ver.4)

Led Zeppelin
Rating:
0/5 (0 votes)

Hard to play? Try these video lessons and learn fast.
                -----------------------------------------------------------------------------
			  Heartbreaker - Led Zeppelin
-----------------------------------------------------------------------------


Tuning:Standard

Most people know the main riff, but I was surprised to see that nobody has the
verse right. Here it is in its entirety.

Intro/Main riff
G||--------------------------|---------------------------|
D||------------0----1--2-----|-------------0---1--2------|
A||--0----3------------------|--0-0-0-0-3----------------|
E||-----------------------3--|-----------------------3---|

|--------------------------|----------------------------|
|------------2----3--4-----|---------------2---3--4-----|
|--2----5---------------0--|--2-2-2-2-5--------------2--|
|--------------------------|----------------------------|

Verse
                   x3      end with           Repeat once
|--9----9/-------12---| |----9--9/---12-0--12-|
|--7----7/-------10---| |----7--9/---10-0--12-|
|---------------------| |---------------------|
|---------------------| |---------------------|

|------7-------7---------|
|--7-------7-------7-----|
|---------------------9\-|
|------------------------|

Main riff
||--------------------------|---------------------------|
||------------0----1--2-----|-------------0---1--2------|
||--0----3------------------|--0-0-0-0-3----------------|
||-----------------------3--|-----------------------3---|

|-------------------------|----------------------------|
|-----------2----3--4-----|---------------2---3--4-----|
|-2----5---------------0--|--2-2-2-2-5--------------2--|
|-------------------------|----------------------------|

||--------------------------|---------------------------|
||------------0----1--2-----|-------------0---1--2------|
||--0----3------------------|--0-0-0-0-3----------------|
||-----------------------3--|-----------------------3---|

Verse 2:
|--9----9/-------12---| |----9--9/---12-x-12--|
|--7----7/-------10---| |----7--9/---10-x-12--|
|---------------------| |---------------------|
|---------------------| |---------------------|

|--9----9/-------12---| |-9--9/---12--x--12--x--11--|
|--7----7/-------10---| |-7--7/---10--x--10--x--9---|
|---------------------| |---------------------------|
|---------------------| |---------------------------|

|--9----9/-------12---| |-9--9/---12--x--12--x--11--|
|--7----7/-------10---| |-7--7/---10--x--10--x--9---|
|---------------------| |---------------------------|
|---------------------| |---------------------------|

|--9----9/-------12---| |----9--9/---12-x-12--|
|--7----7/-------10---| |----7--9/---10-x-12--|
|---------------------| |---------------------|
|---------------------| |---------------------|

|------7-------7-------------|
|--7-------7-------7---x--7\-|
|----------------------------|
|----------------------------|

Verse 3?
||--------------------------|-----------------------------|
||------------3----4--5-----|---------------3----4--5-----|
||--3----6------------------|--3-3-3-3-6------------------|
||-----------------------6--|--------------------------6--|

||--------------------------|-----------------------------|
||------------5----6--7-----|---------------5----6--7-----|
||--5----8------------------|--5-5-5-5-8------------------|
||-----------------------8--|--------------------------8--|


|---------------------------|------------------------------|
|-------------7----8--9-----|----------------7----8--9-----|
|--7----10------------------|--7-7-7-7-10------------------|
|------------------------0--|---------------------------5--|

                                        
|---------------------------|----------------------------|
|---------------------------|o--------------------------0|
|--7--7--7----2-5-4-2-------|o-------7----2-5-4-2-------0|
|---------------------5-3-2-|--0--0---------------5-4-3--|

|-------------------------|------------------------||
|-------------------------|------------------------||
|--------7--7----7-----7--|------------------------||
|--0--0-------------0-----|--0--0--0--0--0--0--0---||

Guitar solo

Bridge (after solo)
                       x3                         x12
G||-----------------------|  |-----------------------||
D||----------5--4---5--4--|  |-----------2-----------||
A||--0---5----------------|  |--0--3--4-----5--3h-4--||
E||-----------------------|  |-----------------------||

|------------------------|------------------------|
|------------------------|------------------------|
|-------------3----------|-------3-----3----------|
|--5----3--5-------5--3--|--5-------5-------5--3--|


                                                            
|-----------------------------|-----------------------------|
|-----------------------------|-----------------------------|
|-------------------6h7-7-7-7-|-----------------------------|
|--5--5----5--5-5-5-----------|--5--5----5--5-5-5-5-5-5-5-5-|


                                                                
|----------------------------------|---------------------------||
|----------------------------------|---------------------------||
|----------------------------------|------------------>--------||
|--5-5-5-5-5-5-5-5-5-5-5-5-5-5-5-5-|--5-5-5-5-5-5-5-5-5--------||

                    x2
|--9----9/-------12---| |----9--9/---12-x-12--|
|--7----7/-------10---| |----7--9/---10-x-12--|
|---------------------| |---------------------|
|---------------------| |---------------------|

--9----9/-------12---| |-9--9/---12--x--12--x--11--|
--7----7/-------10---| |-7--7/---10--x--10--x--9---|
---------------------| |---------------------------|
---------------------| |---------------------------|

|--9----9/-------12---| |----9--9/---12-x-12--|
|--7----7/-------10---| |----7--9/---10-x-12--|
|---------------------| |---------------------|
|---------------------| |---------------------|

|------7-------7-------------||------7-------7---------|
|--7-------7-------7---x--7\-||--7-------7-------7-----|
|----------------------------||---------------------9\-|
|----------------------------||------------------------|

                       x3
|--------------------------|
|------------0----1--2-----|
|--0----3------------------|
|-----------------------3--|

Heart!
            
Hard to play? Try these video lessons and learn fast. | Correct




comments powered by Disqus
↑ Back to top | Tablatures and chords are parodies/interpretations of the original songs. You may use it for private study, scholarship, research or language learning purposes only