» » »

Led Zeppelin, Good Times Bad Times Bass tabs (ver.5)

Artists:  A B C D E F G H I J K L M N O P Q R S T U V W X Y Z # 

Good Times Bad Times Bass tabs (ver.5)

Led Zeppelin Tabs
Rating:
0/5 (0 votes)
Good Times Bad Times lessons Tabs too difficult? Try these video lessons and learn fast
                Artit: Led Zeppelin

Please comment

Enjoy!

INTRO:

G|----------------------------------------------------------|
D|----------------------------------------------------------|
A|----77-------77------77------77------77---------77--------|
E|----------------------------------------------------------|

1ST VERSE

G|------7---7-------------------------------7---7--------------------|
D|----7---7---7---4-7---------------------7---7---7---4-7------------|
A|--5-----------5-----4----5--6---77----5-----------5-----4--5-6---77|
E|-------------------------------------------------------------------|

G|------7---7-------------------------------7---7--------------------|
D|----7---7---7---4-7---------------------7---7---7---4-7------------|
A|--5-----------5-----4----5--6---77----5-----------5-----4--5-6---77|
E|-------------------------------------------------------------------|

G|------7---7-------------------------------7---7--------------------|
D|----7---7---7---4-7---------------------7---7---7---4-7------------|
A|--5-----------5-----4----5--6---77----5-----------5-----4--5-6-----|
E|-------------------------------------------------------------------|

GOOD TIMES BAD TIMES....
G|-------------------------------------------------------------------|
D|-5--7--7---7-------------------------5--7--7---7-------------------|
A|-------------4--4--4--5---5---6---7--------------4--4--4--5--5-6--7|
E|-------------------------------------------------------------------|

G|-------------------------------------------------------------------|
D|-7--9--9--9---------------------------7--9--9--9-X-7--9--9--9--9---|
A|-----------------6--7--7--7--7--8--9-------------------------------|
E|------------9-10---------------------------------------------------|

BASS SOLO:

G|--------------------------------------------------------------------|
D|-9--------9--8--7---------------------------------------------------|
A|------9-------------0--9--0--7--5-----------------------------------|
E|-----------------------------------7--6-----------------------------|

VERSE 2

G|---------------------------------------------------------------------|
D|--------------------2--(4)------------------------0---2--4-----------|
A|---------2--4--4--4--------------------0--2--3--4--------------------|
E|-2--2--2-------------------------2--2--------------------------------|

G|---------------------------------------------------------------------|
D|-----------------------2--3--4--------------------2---3--4-----------|
A|--------0--2--3--4--4---------------0-2--3--4--4---------------------|
E|--2--2--------------------------2--2---------------------------------|

G|---------------------------------------------------------------------|
D|--------4--3--2--------------------------4--3-2----------------------|
A|------4---------0--4--2--1-------------4---------0--4--2--1----------|
E|-2--2----------------------2-0----2--2-----------------------2-0-----|

G|---------------------------------------------------------------------|
D|--------4--3--2--------------------------4--3-2----------------------|
A|------4---------0--4--2--1-------------4---------0--4--2--1----------|
E|-2--2----------------------2-0----2--2-----------------------2-0-----|

GOOD TIMES BAD TIMES...

G|---------------------------------------------------------------------|
D|-7-9----9----9----------------9----9--9------------------------------|
A|----------------X-7--7--7---------------6---X-7--7--7--7-------------|
E|---------------------------------------------------------------------|

G|----------------------------------------------------------------------|
D|------------2--3-4--4--4--4---5---6----------3--4---------------------|
A|--4--4--4-4--------------------------4----4--------X-4--4-------------|
E|-----------------------------------------------------------4/---------|

REST 4 BEATS

GUITAR SOLO:

G|-----9---9-------7--------------------9----9-------7------------------|
D|---9---9---9---7---7--7-------------9----9---9---7---7---7------------|
A|-7-----------7-------5------------7------------7-------5--------------|
E|-----------------------5-----------------------------------5----------|

G|-----9---9-------7--------------------9----9-------7------------------|
D|---9---9---9---7---7--7-------------9----9---9---7---7---7------------|
A|-7-----------7-------5------------7------------7-------5--------------|
E|-----------------------5-----------------------------------5----------|

G|-----9---9-------7--------------------9----9-------7------------------|
D|---9---9---9---7---7--7-------------9----9---9---7---7---7------------|
A|-7-----------7-------5------------7------------7-------5--------------|
E|-----------------------5-----------------------------------5----------|

G|-----9---9-------7--------------------9----9-------7------------------|
D|---9---9---9---7---7--7-------------9----9---9---7---7---7------------|
A|-7-----------7-------5------------7------------7-------5--------------|
E|-----------------------5-----------------------------------5----------|

GOOD TIMES BAD TIMES...

G|-----9---9------------------------------------------------------------|
D|---9---9---9----5--7--7--7--7--7--7---5--7-7----------5------4-5-6-7--|
A|-7-----------7--------------------------------4-5-6-7---7-X-----------|
E|----------------------------------------------------------------------|

G|----------------------------------------------------------------------|
D|------------------7---8--9----9--9--9--9--9-X-9--9--9-----------------|
A|-------6-7--8--9------------------------------------------------------|
E|-7---7----------------------------------------------------------------|

2ND BASS SOLO:

G|-------7-----7------7------7------------------------------------------|
D|-9-7-9--7--9---7--9---7--9---7-9--------------------------------------|
A|------------------------------------------------7--7/-----------------|
E|----------------------------------------------------------------------|

OUTRO:

G|-----7---7-------------------------------7---7------------------------|
D|---7---7---7----4--7-------------------7---7----7---4--7--------------|
A|-5-----------5-------4---5--6---77--5-------------5------4--5--6------|
E|----------------------------------------------------------------------|

G|-----7---7-------------------------------7---7------------------------|
D|---7---7---7----4--7-------------------7---7----7---4--7--------------|
A|-5-----------5-------4---5--6---77--5-------------5------4--5--6------|
E|----------------------------------------------------------------------|

G|-----7---7-------------------------------7---7------------------------|
D|---7---7---7----4--7-------------------7---7----7---4--7--------------|
A|-5-----------5-------4---5--6---77--5-------------5------4--5--6------|
E|----------------------------------------------------------------------|

G|-----7---7-------------------------------7---7------------------------|
D|---7---7---7----4--7-------------------7---7----7---4--7--------------|
A|-5-----------5-------4---5--6---77--5-------------5------4--5--6------|
E|----------------------------------------------------------------------|

FADE OUT....


there you go hope it helped you...
please comment on it
            

comments powered by Disqus
↑ Back to top | Led Zeppelin Bass for Good Times Bad Times. Lyrics for acoustic guitar and electric guitar. Tablatures and chords are parodies/interpretations of the original songs. You may use it for private study, scholarship, research or language learning purposes only