» » »

Led Zeppelin, Friends Tabs (ver.1)

Artists:  A B C D E F G H I J K L M N O P Q R S T U V W X Y Z # 

Friends Tabs (ver.1)

Led Zeppelin Tabs
Rating:
0/5 (0 votes)
Friends lessons Tabs too difficult? Try these video lessons and learn fast
                e|--0--3--0--2--0------0--2--0--2--0--2-----0--0--0--0----0--3--0--2--0------
b|--0--3--0--2--0------0--2--0--2--0--2-----0--0--0--0----0--3--0--2--0------
g|--0---------------------------------------0--0--0--0-----------------------
d|--0---------------------------------------0--0--0--0-----------------------                                                                           
a|--0---------------------------------------0--0--0--0-----------------------
E|--0---------------------------------------0--0--0--0-----------------------                                                                           

                         
e|--0--2--0--2--0--2----0--0--0--0----0--3--0--2--0----0--2--0--2--0--2------
b|--0--2--0--2--0--2----0--0--0--0----0--3--0--2--0----0--2--0--2--0--2------
g|----------------------0--0--0--0-------------------------------------------
d|----------------------0--0--0--0-------------------------------------------                                                                           
a|----------------------0--0--0--0-------------------------------------------
E|----------------------0--0--0--0-------------------------------------------                                                                           


e|--0--0--0--0----0--3--0--2--0----0-----------------------------------------|
b|--0--0--0--0----0--3--0--2--0----0-----------------------------------------|
g|--0--0--0--0---------------------0-----------------------------------------|
d|--0--0--0--0---------------------0-----------------------------------------|                                                                           
a|--0--0--0--0---------------------0--------3-X---2-X---5-X---4X---7X--------|
E|--0--0--0--0---------------------0--------3-X---2-X---5-X---4X---7X--------|                                                                           



Rythym figure 2: 

e|--0-------0--0--0--0--0--0--0--0--0--0----0--0--0--0--0--0--0--0--0--0--0--0
b|--0-------0--0--0--0--0--0--0--0--0--0----5--5--5--5--3--3--3--3--3--3--3--3
g|--0-------0--0--0--0--0--0--0--0--0--0--------------------------------------
d|--0-------0--0--0--0--0--0--0--0--0--0----3--3--3--3--1--1--1--1--1--1--1--1                                                                           
a|--0-------0--0--0--0--0--0--0--0--0--0----0--0--0--0--0--0--0--0--0--0--0--0
E|--0-------0--0--0--0--0--0--0--0--0--0----0--0--0--0--0--0--0--0--0--0--0--0                                                                           


e|--0--0--0--0--0--0--0--0--0--0----0--0--0--0--0--0--0--0--0--0--0--0--0--0-
b|--3--3--3--3--3--3--3--3--3--3----7--7--7--7--5--5--5--5--5--5--5--5--5--5-
g|---------------------------------------------------------------------------
b|--5--5--5--5--5--5--5--5--5--5----5--5--5--5--3--3--3--3--3--3--3--3--3--3-                                                                           
a|--0--0--0--0--0--0--0--0--0--0----0--0--0--0--0--0--0--0--0--0--0--0--0--0-
E|--0--0--0--0--0--0--0--0--0--0----0--0--0--0--0--0--0--0--0--0--0--0--0--0-                                                                           


e|--0--0--0--0--0--0--0----0--0--0--0--0--0--0--0--0--0--0--0--0--0--0--0--0-
b|--5--5--5--5--5--5--5----5--5--5--5--7--7--7--7--7--7--7--7--7--7--7--7--7-
g|---------------------------------------------------------------------------
d|--3--3--3--3--3--3--3----3--3--3--3--5--5--5--5--5--5--5--5--5--5--5--5--5-                        
a|--0--0--0--0--0--0--0----0--0--0--0--0--0--0--0--0--0--0--0--0--0--0--0--0-
E|--0--0--0--0--0--0--0----0--0--0--0--0--0--0--0--0--0--0--0--0--0--0--0--0-                        


e|--0--0--0--0--0---0--0--0--0--0--0--0--|
b|--7--7--7--7--7---3--3--3--3--5--5--5--|
g|---------------------------------------|
d|--5--5--5--5--5---1--1--1--1--3--3--3--|                                                                           
a|--0--0--0--0--0---0--0--0--0--0--0--0--|
E|--0--0--0--0--0---0--0--0--0--0--0--0--|                                                                           


Rythym Figure 3:


e|--0-------0--0--0--0--0--0--0--0--0--0----0--0--0--0--0--0--0--0--0--0--0--0
b|--0-------0--0--0--0--0--0--0--0--0--0----5--5--5--5--3--3--3--3--3--3--3--3
g|--0-------0--0--0--0--0--0--0--0--0--0--------------------------------------
d|--0-------0--0--0--0--0--0--0--0--0--0----3--3--3--3--1--1--1--1--1--1--1--1                                                                           
a|--0-------0--0--0--0--0--0--0--0--0--0----0--0--0--0--0--0--0--0--0--0--0--0
E|--0-------0--0--0--0--0--0--0--0--0--0----0--0--0--0--0--0--0--0--0--0--0--0                                                                           


e|--0--0--0--0--0--0--0--0--0--0----0--0--0--0--0--0--0--0--0--0--0--0-------
b|--3--3--3--3--3--3--3--3--3--3----5--5--5--5--7--7--7--7--9--9--9--9-------
g|---------------------------------------------------------------------------
b|--1--1--1--1--1--1--1--1--1--1----3--3--3--3--5--5--5--5--7--7--7--7-------
a|--0--0--0--0--0--0--0--0--0--0----0--0--0--0--0--0--0--0--0--0--0--0-------
E|--0--0--0--0--0--0--0--0--0--0----0--0--0--0--0--0--0--0--0--0--0--0-------

e|--0--0--0--0--0--0--0--0-|
b|--3--3--3--3--5--5--5--5-|
g|-------------------------|
d|--1--1--1--1--3--3--3--3-|                                                                          
a|--0--0--0--0--0--0--0--0-|
E|--0--0--0--0--0--0--0--0-|                                                                           
            
Submit corrections

comments powered by Disqus
↑ Back to top | Led Zeppelin Tabs for Friends. Lyrics for acoustic guitar and electric guitar. Tablatures and chords are parodies/interpretations of the original songs. You may use it for private study, scholarship, research or language learning purposes only