» » »

Four Sticks Tabs (ver.1)

Artists:  A B C D E F G H I J K L M N O P Q R S T U V W X Y Z # 

Four Sticks Tabs (ver.1)

Led Zeppelin
Rating:
0/5 (0 votes)

Hard to play? Try these video lessons and learn fast.
                e|---------------------------------------------------------------------------
b|---------------------------------------------------------------------------
g|---------------------------------------------------------------------------
d|-----------5b-----------5b-----------5b-----------5b----------7-------5----
a|--4--5--7--0---4--5--7--0---4--5--7--0---4--5--7--0---4--5----7-------5----
E|--0--0--0------0--0--0------0--0--0------0--0--0------0--0----5-------3----


e|-----------------------------------------|
b|-----------------------------------------|
g|-----------------------------------------|
d|-----------5b-----------5b----7-------5--|
a|--4--5--7--0---4--5--7--0-----7-------5--|
E|--0--0--0------0--0--0--------5-------3--|


Riff 2 (When the owls cry in the night)

e|--------------0---------------0---------------0----------------0--------0--
b|--------------0---------------0---------------0----------------0--------0--
g|---------------------------------------------------------------------------
d|--7--7--7--7------9--9--9--9--------7-----------------------7--------7-----
a|---------------------------------------------------------------------------
E|--5--5--5--5------7--7--7--7--------9-----------------------9--------9-----


e|--------------0---------------0---------------0----------------0--------0--
b|--------------0---------------0---------------0----------------0--------0--
g|---------------------------------------------------------------------------
d|--7--7--7--7------5--5--5--5--------4-----------------------4--------4-----
a|---------------------------------------------------------------------------
E|--5--5--5--5------3--3--3--3--------2-----------------------2--------2-----


Riff 3: (guitar played in sync with sythesizer)

e|-------------------------------------------------|
b|-------------------------------------------------|
g|---------------------------5-----7-----9-----11--|
d|--9-----7-----5-----9------3-----5-----7-----9---|
a|--7-----5-----3-----7----------------------------|
E|-------------------------------------------------|
            
Hard to play? Try these video lessons and learn fast. | Correct




comments powered by Disqus
↑ Back to top | Tablatures and chords are parodies/interpretations of the original songs. You may use it for private study, scholarship, research or language learning purposes only