» » »

Led Zeppelin, D'yer Maker Bass tabs (ver.5)

Artists:  A B C D E F G H I J K L M N O P Q R S T U V W X Y Z # 

D'yer Maker Bass tabs (ver.5)

Led Zeppelin Tabs
 Rating:
4/5 (4 votes)
D'yer Maker lessons Tabs too difficult? Try these video lessons and learn fast
                D'yer Mak'er
Led Zeppelin

G----------------------------------------|
D----------------------------------------|
A--3-3-----------------------------------|
E-----------5-5------1-1-------3-3-------|

Verse:
G------------------------------------------------------------------------------------------|
D------------------------------------------------------------------------------------------|
A------------------------------------------------------------------------------------------|
E-5-5--5-5-----5-5--5-5-----3-3--3-3-----3-3--3-3-----5-5--5-5------5-5--5-5-----3-3--3-3--|

-----------------------------------------------------------------------------------------|
-----------------------------------------------------------------------------------------|
-----------------------------------------------------------------------------------------|
-5-5--5-5-----5-5--5-5-----3-3--3-3-----3-3--3-3------1-1-1-1-1-1-1-1-1-1-3-3-3-3-3-3-3--|

Led Zeppelin Is #1 Band
            
Submit corrections

comments powered by Disqus
↑ Back to top | Led Zeppelin Bass for D'yer Maker. Lyrics for acoustic guitar and electric guitar. Tablatures and chords are parodies/interpretations of the original songs. You may use it for private study, scholarship, research or language learning purposes only