>
 >
Dazed And Confused Live

Dazed And Confused Live Guitar Tabs

Led Zeppelin - Dazed And Confused Live chords, tabs, tablatures, lyrics

Guitar lessons | Add/correct | Request | Top 50 tabs Artists:  A B C D E F G H I J K L M N O P Q R S T U V W X Y Z 0-9

Dazed And Confused Live Guitar Tabs – Led Zeppelin

CD, Sheet music, Poster

Do you like Dazed And Confused Live? Share with your friends now
TabsTabs v2
 ''Dazed and confused live (royal albert hall)''
                 
                    play this with a fuzz pedal and wah and echo for the solo.


Heres the video i tabbed from...Led zeppelin DVD

-----------------------------------------------------------------

play the intro with the wah pedal.(watch for timing)

    *    *      *    *    *   *     *
|-------12----------12-------5---------------------x//--------------------|
|---12----------12--------5------------------------x//--------------------|
|-----------------------------------12bbbbb~~------x//-string noise.------|
|--------------------------------------------------x//--------------------|
|-------------------------------------------------------------------------|
|-------------------------------------------------------------------------|
     
     *  *  *      *   *  *          *  *       *
|----7------------7--------------------12---------------------------------|
|-------7-------------7-------------12-12---------------------------------|
|----------5bb~----------5bbb~------12---------12bbb~~--------------------|
|-------------------------------------------------------------------------|
|-------------------------------------------------------------------------|
|-------------------------------------------------------------------------|

Been dazed and confused so long its not true....

                                                            *
|-xx///-----------------------------------------------------5------------|
|-xx///-----------------------------------------------------5------------|
|-xx///--------------------------------------------------very soft^^-----|
|-xx///------------------------------------------------------------------|
|------------------------------------------------------------------------|
|------------------------------------------------------------------------|
        Woman woman woman,..

wah off.
|------------------------------------------------------------------------|
|------------------------------------------------------------------------|
|------------------------------------------------------------------------|
|------------------------------------------------------------------------|
|----------/10~~--9~~--8b~~-8~--7~~-----------------5~~--4~~--3b~-3~-2---|
|--0---0--------------------------------//\\-----0-----------------------|

|------------------------------------------------------------------------|
|------------------------------------------------------------------------|
|------------------------------------------------------------------------|
|------------------------------------------------------------------------|
|----------------14~~--13~~--12~---12~--10------------5~--4~--2b~~~---2--|
|---///\\\---0-----------------------------------0-----------------------|

Ive worked.........sweet little baby you pushed me away.

|-------------------------------------------------------------------------|
|xx//---------------------------------------------------------------------|
|xx//----------------------14--12--14~--14b~---14b----14--14b---14-12/----|
|xx//---------------------------------------------------------------------|
|xx//---------------------------------------------------------------------|
|-------------------------------------------------------------------------|

                                           repeat this 4 x.
|--------------------------------------|-----------------------------------|
|--------------------------------------|-----------------------------------|
|--------------------------------------|---------------2-4-----------------|
|--14b16--14b16--14b16--14p12--12t14/--|--4-4-4---2--4-----2-4-------------|
|------------------------------------14|--2-2-2----------------------------|
|--------------------------------------|-----------------------------------|


|------------------------------------------------------------------------|
|------------------------------------------------------------------------|
|------------------------------------------------------------------------|
|------------------------------------------------------------------------|
|----------/10~~--9~~--8b~~-8~--7~~-----------------5~~--4~~--3b~-3~-2---|
|--0---0--------------------------------//\\-----0-----------------------|

|------------------------------------------------------------------------|
|------------------------------------------------------------------------|
|------------------------------------------14/---------------------------|
|------------------------------------------------------------------------|
|----------------14~~--13~~--12~---12~--10------------5~--4~--2b~~~---2--|
|---///\\\---0-----------------------------------0-----------------------|

I said come hear baby...
-------------------------

slide with pick.            (neck pickup)
|--1/21------------------------------------------------------------------|
|------------------------------------------------------------------------|
|--------------12--14--14b~~--14-14-12/----------------------------------|
|----------------------------------------14b16--14-12/-------------------|
|------------------------------------------------------12t14/------------|
|------------------------------------------------------------------------|

|-------------------------------|
|-------------------------------|
|---------------2--4------------|4x
|--4-4-4---2--4------2-4--------|
|--2-2-2------------------------|
|-------------------------------|
                          palm mute.                neck pickup.
|-----------------------------------------------------------------------------|
|-----------------------------------------------------------------------------|
|------------------------------------------------------------12---------------|
|-----------------------------------------------------12--14----14~---14/-----|
|---5--5--5----5---2------5---5---5----5---2------/14-------------------------|
|---3--3--3----3---0------3---3---3----3---0----------------------------------|

|----------------------------------------------------------------------------------|
|--------------15------------------------------------------------------------------|
|--12--14--14b----14b--14--12------------------------------------------------------|
|------------------------------14--14~---------------------------------------------|
|---------------------------------------12hphp14/11--11t12-11-----11t12-12-11~-----|
|----------------------------------------------------------------------------------|
                                                   

|--------------------------------------------------------------------|
|--------------------------------------------------------------------|
|--------------------------------------------------------------------|
|----------------------------------------------------9---------------|
|-11hphphph12----------11hphphph12-------------------7---------------|
|--------------12~/------------------12~/------------0---------------|
                                                    

  violin bow!                                     neck pickup.
|--0---------------------------------------------------------------------|
|--0---------------------------------------------------------------------|
|--0---------------------------------------------------------------------|
|--14-------14----12----7---9-------14~--12~--7~--9~---------------------|
|--12-------12----10----5---7-------12~--10~--5~--7~---------------------|
|--0---------------------------------------------------------------------|

turn the delay on now.
     *                           *
|----12-----12-12--14--15~/17----12---12--12--14--15--15/17~--15--14--15--14hp15-|
|----12--------------------------12----------------------------------------------|
|----12--------------------------12----------------------------------------------|
|--------------------------------------------------------------------------------|
|--------------------------------------------------------------------------------|
|--------------------------------------------------------------------------------|
                             *
|--12---12hp14-------12~~----12----12--14--15--15/17~--15--14-15-14hp15-12-14-12hp14-|
|----------------15----------12------------------------------------------------------|
|----------------------------12------------------------------------------------------|
|------------------------------------------------------------------------------------|
|------------------------------------------------------------------------------------|
|------------------------------------------------------------------------------------|
                                         *    *
|-12~-10-12--10hp12-8-10--8hp10--7~------5----12-----------------------|
|----------------------------------------5----12-----------------------|
|----------------------------------------5----12-----------------------|
|----------------------------------------5----12-----------------------|
|----------------------------------------5----12-----------------------|
|----------------------------------------5----12-----------------------|

echo now repeats twice.(bridge pickup)
|----------------------------------------------------------------------------|
|----------------------------------------------------------------------------|
|----------------------------------------------------------------------------|
|--14-14~---12-12~---7-7~---9-9~----14-14-14~---12-12-12~---7-7-7~---9-9-9~--|
|--12-12~---10-10~---5-5-~--7-7~----12-12-12~---10-10-10~---5-5-5~---7-7-7~--|
|----------------------------------------------------------------------------|

|-------------------------------------------------------------------|
|-------------------------------------------------------------------|
|-------------------------------------------------------------------|
|-14-14---12--12---7-7-7---9-9------14-14---12-12---7-7-7---9-9-----|
|-12-12---10--10---5-5-5---7-7------12-12---10-10---5-5-5---7-7-----|
|-------------------------------------------------------------------|

|----------------------------------------------------------------------------|
|----------------------------------------------------------------------------|
|----------------------------------------------------------------------------|
|-11-11-11-11---12-12---14-14-14---16-16---17~--19--17-17-16-15-14-----------|
|-9--9--9--9----10-10---12-12-12---14-14---15~--17--15-15-14-13-12-----------|
|----------------------------------------------------------------------------|


                                    neckpickup.
|-------------------------------------------------------------------|
|-------------------------------------------------------------------|
|----------------------------------5~-------------------------------|
|-12-12/11-11/12-12/11-11/12~------5~-------------------------------|
|-10-10/9--9/-10-10/9--9/-10~------3~---------9/0----9/0----9/4/9---|
|---------------------------------------------7/0----7/0----7/2/7---|
                                                                      *
|---------------------------------------------------------------------12----|
|---------------------------------------------------------------------12----|
|---------------------------------------------------------------------12----|
|---------------------------------------------------------------------------|
|/10/8/4/8~------/9\8---/16/15----/9/8---/14/13/16/15~~---------------------|
|/8//6/2/6~------/7\6---/14/13----/7/6---/12/11/14/13~~----15~-15b~---------|

|----------------------------------------------------------------------------|
|----------------------------------------------------------------------------|
|----------------------------------------------------------------------------|
|----------------------------------------------------------------------------|
|----------------------------------------------------------------------------|
|----14~--15-16-17--15-14-15--17b~--17-15-14---12~/0--12/0-12/0--12/0--------|

            *       *
|-----------12------5---------------------3/0---------------------------------|
|-----------12------5---------------------3/0---------------------------------|
|-----------12------5---------------------4/0---------------------------------|
|-9---------12------5---------------------5/0---------------------------------|
|-7---------12------5------5/0------------5/0-------------------------2-------|
|-0------------------------3/0------------3/0-----------3-2-3-2-3-2-3-0-------|
                               ahhahh ah.     ahah oh.

|-------------------------------------------------------------------|
|-------------------------------------------------------------------|
|-------------------------------------------------------------------|
|----------------------------------------------------------------5~-|
|-----------------2--2--------9/8/9/8/9/8/9/12~----9/8/9/8/9/8/9/5~-|
|---------3-3-5-5----0--------7/6/7/6/7/6/7/10~----7/6/7/6/7/6/7/3~-|
hmmm oh,               oh oh       Judy,judy...


|------------------------------------------------------------------------|
|------------------------------------------------------------------------|
|------------------------------------------------------------------------|
|------------------------------------------------------------------------|
|-8/9/8/9/8/9~----11/12/11/12/11/12~---14/15/14/15/14/15~---17/19/17/19~-|
|-6/7/6/7/6/7~----9-/10/9-/10/9/-10~---12/13/12/13/12/13~---15/17/15/17~-|


 
|-------------------------------------------1----///xx-----------------------|
|-------------------------------------------1----///xx-----------------------|
|-------------------------------------------2----///xx-----------------------|
|-------------------------------------------3----///xx---slide-like crazy.---|
|-17/0--------------------------------------3----///xx-----------------------|
|-15/0----0--0--------------------0---0-----1----///xx-----------------------|
                 Be on my side...             lots of random wah here!

 
                      (18:19)
|------------------------------------------------------------------|
|------------------------------------------------------------------|
|---------9~~~~~~--------------------------------------------------|
|--9--------------------7~-----7----9~---9--7-7--7----9~-----------|
|--7--------------------5~-----5----7~---7--5-5--5----7~-----------|
|--0---------------------------------------------------------------|

|-------------------------------------------------------------------|
|-------------------------------------------------------------------|
|-----------------12--14--12------------------------12--14----12~---|4X
|----------12--14-------------14~------------12--14-----------------|
|---12--14----------------------------12--14------------------------|
|-------------------------------------------------------------------|

|----------------------------------------------------------------------------|
|---15-------14------13-------10--------8-------7------3------8--------------|
|---17b19~---16b18~--15b17~---12b14~----10b12~--9b11~--5b7~---10b12~---------|
|----------------------------------------------------------------------------|
|----------------------------------------------------------------------------|
|----------------------------------------------------------------------------|

|--------------------------------------------------------------------------|
|-7------3-----2----------8---------10-------15------17-----20b~ 20b~ 20b~-|
|-9b11~--5b7~--4b6~-------10b12~~---12b14~~--17b17~--19b21~----------------|
|--------------------------------------------------------------------------|
|--------------------------------------------------------------------------|
|--------------------------------------------------------------------------|


SOLO(sorry guys i cant tab the live solo. to hard to tab. just improvise something like
this.)

|--------------------------------------------------------15\12----15\12---|
|---12--12-15\12-------12-15\12---------12-12-15\12-X-12-------12-------12|
|14b16-----------14b16----------14-14b16----------------------------------|
|-------------------------------------------------------------------------|
|-------------------------------------------------------------------------|
|-------------------------------------------------------------------------|

|15\12---15\12--15\12------12-15b17-15-12----12---------------------------|
|------12-----12-----12-12-12-------------15-15-15\12---------------------|
|-----------------------------------------------------14\12----12-14-12-14|
|-----------------------------------------------------------14------------|
|-------------------------------------------------------------------------|
|-------------------------------------------------------------------------|

|-------------------------------------------------------------------------|
|--------15---------------------------------------------------------------|
|12-14b16----16\14\12-14\12---------------------------------!9!b!11!--9b11|
|--------------------------14-12-14-12/14\12----12/14\12--0---------------|
|--------------------------------------------14---------------------------|
|-------------------------------------------------------------------------|

|-------------------------------------------------------------------------|
|-------------------------------------------------------------------------|
|--7-9-7-7-7\6-6\5-6-7\6-4-6\4\3-4-2-2\0-4-2\0--0-0-0b2--0-0b2-0-0b2-0-0b2|
|-------------------------------------------------------------------------|
|-------------------------------------------------------------------------|
|-------------------------------------------------------------------------|

|-------------------------------------------------------15\12-15-15b12----|
|----------------------------------------------------12-------12-12----12-|
|-0-0-0b4-0-0b2--0-0b4b4-0-0b2-0-0b4-0-0b3-0-0-b4r0-----------------------|
|-------------------------------------------------------------------------|
|-------------------------------------------------------------------------|
|-------------------------------------------------------------------------|

|15\12----15\12----15--15\12-----15--15b17-15-17-15b17-15b17-15-12----12--|
|------12-------12------------12-----------------------------------15-----|
|-------------------------------------------------------------------------|
|-------------------------------------------------------------------------|
|-------------------------------------------------------------------------|
|-------------------------------------------------------------------------|

|-------------------------------------------------------------------------|
|15\12------------------------15------------------------------------------|
|------14\12---12-14-12-14/16----16\14\12-14\12---------------------------|
|------------14---------------------------------14-12/14\12----12-12------|
|-----------------------------------------------------------14----12/14\12|
|-------------------------------------------------------------------------|

|------------------------------------------------------------------19b21--|
|--------------------------17b20---17b19-17b20--17b19-15-15--17-17--------|
|-------------------------------------------------------------------------|
|-------------------------------------------------------------------------|
|/14\12---------10--12-10-------------------------------------------------|
|------------12-----------------------------------------------------------|

|19\18--17----------------------------------------------------------------|
|----------20-20\17----17-20--17/20\17----17-20-17/20\17----17-20-17/20\17|
|-------------------19-----------------19----------------19---------------|
|-------------------------------------------------------------------------|
|-------------------------------------------------------------------------|
|-------------------------------------------------------------------------|

|-------------------------------------------------------------------------|
|----17-20-17/20\17----17-20-20b22--19b21-21b22-19b20-19b20b22------20b22b|
|-19----------------19----------------------------------------------------|
|--------------------------------------------------------------0-0--------|
|-------------------------------------------------------------------------|
|-------------------------------------------------------------------------|

|-------------------------------------19b22r19---------19b22r19-----------|
|24r20\17--17-17--20b24r20-17-17-17-17---------17-17-17---------17-17-17--|
|-------------------------------------------------------------------------|
|-------------------------------------------------------------------------|
|-------------------------------------------------------------------------|
|-------------------------------------------------------------------------|

|-------------------------------------------------------------------------|
|--17-20b23r20--17-17----17b20r17-15-15--15b17r15-------------------------|
|---------------------0--17-----------------------12-12---12b14r12-9-9--9-|
|-------------------------------------------------------------------------|
|-------------------------------------------------------------------------|
|-------------------------------------------------------------------------|

|-------------------------------------------------------------------------|
|----------------------------------------------------4\2\0-------------!4!|
|9b11-9b11r9--7--4b6r4-4--4\2\0-2--4\2\0-2--4\2\0-2--4\2\0-2--2--4--2---4-|
|-------------0-----------------------------------------------------------|
|-------------------------------------------------------------------------|
|-------------------------------------------------------------------------|

|---------------------------------------|
|----2/4\2\0----------------------------|
|----2/4\2\0--0--2\0/2\0/2--------------|
|--------------------------4\2\0--------|
|--------------------------------4\2\0--|
|---------------------------------------|
==============================================

(19:32)
|----------------------------------------------------------------17---------------|
|---15--17b19-17b19-17b19-17b19--17-15~--15-17-17b19-17b19-17b19---17b19--17--15~~|
|---------------------------------------------------------------------------------|2x
|---------------------------------------------------------------------------------|
|---------------------------------------------------------------------------------|
|---------------------------------------------------------------------------------|

|-------------------------------------------------------------------------|
|------------------------------------------------------10-----------------|
|--7--9b11-9b11-9b11--9b11--9~--7~----7--9b11-9b11-9b11---9b11--9--7~~----|
|-------------------------------------------------------------------------|
|-------------------------------------------------------------------------|
|-------------------------------------------------------------------------|

(improvise in Em pentitonic scale)
========================================

(19:57)
|----------------------------------------------------------|
|----------------------------------------------------------|
|---5--7b9-5~---7b9--5----5~-7-9-7-5hp7--5~----------------|2x
|----------------------------------------------------------|
|----------------------------------------------------------|
|----------------------------------------------------------|

|-------------------------------------------------------------------|
|-------------------------------------------------------------------|
|---4~---4p2p0--2~----2p0--0------2p0-------------------------------|
|-------------------------------------4~-----2p0---2~~--------------|
|-------------------------------------------------------------------|
|-------------------------------------------------------------------|

|--------------------------------------------------|
|--------------------------------------------------|
|-------------9---9-------------------9--9---------|3x
|-5-----7-----7---7-------------------7--7---------|
|-3-----5-----0---0-------------------0--0---------|
                    mama mama mama

|-------------------------------------------------------------------|
|-------------------------------------------------------------------|
|--0--0--0--0bbb~~~~-------------0--0--0--0bb~~-----0 2h0---4~~-----|
|-------------------------------------------------------------------|
|-------------------------------------------------------------------|
|-----------------------0x------------------------------------------|


|---------------------------------------------------------19-trem pick-|
|-----------------------------------15 trem pick to 22-----------------|
|-2p0--7~~----2p0--9~~---2p0--12~~-------------------------------------|
|----------------------------------------------------------------------|
|----------------------------------------------------------------------|
|----------------------------------------------------------------------|

(improvise) till (21:43)

|-------------------------------------------------------------------|
|-------------------------------------------------------------------|
|-------------------------------------------------------------------|
|-------------------------------------------------------------------|
|--9---7---4----7~------7/11----11/7/--7/4--------------------------|
|--7---5---2----5~------5/9-----9/-5/--5/2--------------------------|
                                            (neck pickup)

|-------------------------------------------------------------------|
|-------------------------------------------------------------------|
|-------------------------------------------------------------------|
|-2--------2----/9/8~--------2------2----/9/8~----12/15/14~---------|
|-0--------0----/7/6-~-------0------0----/7/6~----10/13/12~---------|
|-------------------------------------------------------------------|

|---------------------------------------------------------------------|
|---------------------------------------------------------------------|
|--------------------------------------------------------------14-----|
|-2----/9/8~~---12/15/14~~~------14---9---8~~-----8/9/8-9/8/15/--~~---|
|-0----/7/6~~---10/13/12~~~------12---7---6~~-----6/7/6/7/6/13/12~~---|
|---------------------------------------------------------------------|


(bridge pickup)
|---0--0----0---0--0-0---0--0--0--0--0--0--0--0--0----0--0----0-----------|
|-------------------------------------------------------------------------|
|---2--2----2---4--5-5---5--4--5--7--7--9--9--11-11--12--14---12--14~~~~--|
|-------------------------------------------------------------------------|
|-------------------------------------------------------------------------|
|-------------------------------------------------------------------------|


|---------------------------------------------------------------------|
|---------------------------------------------------------------------|
|-17~~----17b19---17~~----17b19 17~-----this-note with feedback--(17)!|
|---------------------------------------------------------------------|
|---------------------------------------------------------------------|
|---------------------------------------------------------------------|


|------------------------------------------------------------|
|------------------------------------------------------------|
|------------------------------------------------------------|
|-9~----7~-----------7~-/--9~--------9~---12~----------------|x3
|-7~----5~---7~------5~-/--7~--------7~---10~----------------|
|-0----------5~----------------------------------------------|



|-------------------------------|
|-------------------------------|
|---------------2--4------------|4x   
|--4-4-4---2--4------2-4--------|    
|--2-2-2------------------------|
|-------------------------------|

|------------------------------|
|-15b17-15--12-----------------|
|---------------14b-14-12------|Little riff after this plays^^
|-------------------------14~--|
|------------------------------|
|------------------------------|

(heavy fuzz)
|------------------------------------------------------------------------|
|------------------------------------------------------------------------|
|------------------------------------------------------------------------|
|------------------------------------------------------------------------|
|----------/10~~--9~~--8b~~-8~--7~~-----------------5~~--4~~--3b~-3~-2---|
|--0---0--------------------------------//\\-----0-----------------------|

|------------------------------------------------------------------------|
|------------------------------------------------------------------------|
|------------------------------------------14/---------------------------|
|------------------------------------------------------------------------|
|----------------14~~--13~~--12~---12~--10------------5~--4~--2b~~~---2--|
|---///\\\---0-----------------------------------0-----------------------|
                       
 
                                       (neck)
|---------------------xx//-------------------------------------------------------|
|---------------------xx//-----------------------------------15b-15b-------------|
|---------------------xx//------------------14b--14p12---------------14b 14p12---|
|---------------------xx//-----------------------------14-14-------------------14|
|---------------------xx//-------------------------------------------------------|
|---------------------xx//-------------------------------------------------------|
  every day i work..         try to love...


(bridge)pickup
|-------------------------------|
|-------------------------------|
|---------------2--4------------|4x   
|--4-4-4---2--4------2-4--------|    
|--2-2-2------------------------|
|-------------------------------|

|--------------------------------------------------------------|
|--------------------------------------------------------------|
|---------------------7-7-7-5~----9-9-9-7~--12-12-12-11~-------|
|---5-5-5-5-----------7-7-7-5~----9-9-9-7~--12-12-12-11~-------|
|------------2-------------------------------------------------|
|---3-3-3-3--0-------------------------------------------------|

 
                                                   (neck Pickup)
|-------------------------------------------------------------------|
|-------------------------------------------------------------------|
|-14-14-14-13~------------------------------------------------------|
|-14-14-14-13~-----------12p11p10------12p11p10---12p11p10--12p11p10|
|-------------------------------------------------------------------|
|------------------0-0-0----------0-0-0-----------------------------|

|--------------------------------------------------------------------|
|--------------------------------------------------------------------|
|---------------------12p11p10--------------------------11~~---------|
|-12p11p10--12p11p10-------------12p11p10---12p11p10-----------------|
|--------------------------------------------------------------------|
|--------------------------------------------------------------------|

|-------------------------------------------------------------------|
|-------------------------------------------------------------------|
|------------12~--10~--11~-------------------12~-10~-11~---11/14~---|
|--12p11p10------------------------12p11p10-------------------------|
|-------------------------------------------------------------------|
|-------------------------------------------------------------------|


|-----------------------------------------------10----------------------|
|--------------------------------------------10-----13b---10------------|
|---12-10-11~----------------------------12b------------------12b-12-10~|
|-------------12-10------------12-12~-----------------------------------|
|--------------------12-10-9--------------------------------------------|
|-----------------------------------------------------------------------|

|----------------------------------------------------------------|
|-------------10----------------10------------------8------------|
|-12~~----12b----13-12~~----12b----13--12~---10--/9---9----------|
|----------------------------------------------------------------|
|----------------------------------------------------------------|
|----------------------------------------------------------------|

|---------------------------------------10---------------------------|
|-------------------------------------10------------15-10------------|
|-10~--------------------------12b14--------12b14------------12b--10-|
|------12--10--/14--12~----------------------------------------------|
|--------------------------------------------------------------------|
|--------------------------------------------------------------------|

|-------------------------------------------------------------------------|
|-------------------------------------------------------------------------|
|---12----10hp12------10hp12----10hp12------------------------------------|
|-----------------12---------12--------12----12~-----10hp12---------------|
|------------------------------------------------------------//12~~-------|
|-------------------------------------------------------------------------|

|--------------------------------------------------------------------------|
|--10--10--10--10--10----------------------------12---15~-15~-15~-15~------|
|--9b--9b--9b--9b--9b---7---9p7--------7~~---------------------------------|
|---------------------------------9p7--------------------------------------|
|--------------------------------------------------------------------------|
|--------------------------------------------------------------------------|

|----------------------------------------------------------------------------------|
|-15~--15~--15~---12--15hp12-------------------------------------------------------|
|-----------------------------14--12hp14---------------------------------11--------|
|------------------------------------------10--12~--12--10--12-10----/12----11--12~|
|----------------------------------------------------------------------------------|
|----------------------------------------------------------------------------------|


|------------13--------------------------------------------------------------|
|---------13-----15~---15-----13hph15~---13hph15~---13hph15~----13hph15~-----|
|---//14~--------------------------------------------------------------------|
|----------------------------------------------------------------------------|
|----------------------------------------------------------------------------|
|----------------------------------------------------------------------------|


|----------------------------------------------------------------------------|
|----------------------------------------------------7-7-7-7-7---------------|
|----------------------------------------------------7-7-7-7-7---------------|
|----------------------------------------------------7-7-7-7-7---------------|
|----------------------------------------------------5-5-5-5-5---------------|
|--12/14/10~------12/9~-----12/14/9~------12/0-------------------------------|

|--------------------------------------------------------------------------|
|---7--7-7--7--7----------7-7-7-7-7------7-7-7-7-7-------7-7-7-7-7---------|
|---7--7-7--7--7----------7-7-7-7-7------7-7-7-7-7-------7-7-7-7-7---------|
|---7--7-7--7--7----------7-7-7-7-7------7-7-7-7-7-------7-7-7-7-7---------|
|---5--5-5--5--5----------5-5-5-5-5------5-5-5-5-5-------5-5-5-5-5---------|
|--------------------------------------------------------------------------|
ahhhh...
|-----------------------------------------------------------------------|
|--7-7-7-7-7-------7-7-7-7-7------7-7-7-7-7------7-7-7-7-7----7-7-7-7-7-|
|--7-7-7-7-7-------7-7-7-7-7------7-7-7-7-7------7-7-7-7-7----7-7-7-7-7-|
|--7-7-7-7-7-------7-7-7-7-7------7-7-7-7-7------7-7-7-7-7----7-7-7-7-7-|
|--5-5-5-5-5-------5-5-5-5-5------5-5-5-5-5------5-5-5-5-5----5-5-5-5-5-|
|-----------------------------------------------------------------------|


|------------------------------12------------------------------------------|
|------8-8-8----------------12----13b15--13-10-----------------------------|
|------7-7-7----------12b14---------------------12b14--12-------12p10p0----|
|------6-6-6----------------------------------------------12-12------------|
|------7-7-7---------------------------------------------------------------|
|--0-----------------------------------------------------------------------|

|-------------------------------------------------------------------|
|-------------------------------------------------------------------|
|--12p10p0--12p10p0--12p10p0---12---10--12--11~~~/------------------|
|----------------------------------------------------x--------------|
|-------------------------------------------------------------------|
|-------------------------------------------------------------------|
Thats it please rate high.(do not copy and post tabs of this. i worked very hard)


legend.

b=bend
h=hammeron
p=pulloff
bb=bend behind nut
hp=hammeron pulloff
*=harmonic.
~=vibrato
x=muted
xx/=pick slide.





Comments


Popular Led Zeppelin tabs & chords
Night Flight Bass Tabs
House Of The Rising Sun Chords
Living Loving Maid Drum Tabs
Good Times Bad Times 1 Tabs
No Quarter 2 Tabs
Stairway To Heaven 8 Tabs
The Ocean 6 Tabs
Travelling Riverside Blues Tabs
White Summer Fast Bit Tabs
The Girl I Love Ukulele


Song lyrics



↑ Back to top | Tablatures and chords are parodies/interpretations of the original songs. You may use it for private study, scholarship, research or language learning purposes only
© 2014 AZChords.com Contact us | Privacy policy | DMCA | Add/correct tabs | Request tabs | Top 50 tabs