» » »

Led Zeppelin, Dazed And Confused Tabs (ver.2)

Artists:  A B C D E F G H I J K L M N O P Q R S T U V W X Y Z # 

Dazed And Confused Tabs (ver.2)

Led Zeppelin Tabs
Rating:
0/5 (0 votes)
Dazed And Confused lessons Tabs too difficult? Try these video lessons and learn fast
                (Complete)
Artists: Robert Plant, Jimmy Page,
	John Paul Jones, John Bonham

Tablature
----------------------
b=bend
r=release
h=hammer-on
~=vibrato
/=slide up to indicated fret
\=slide down to indicated fret
(indicated fret)=natural harmonics

----------------------

Bassline provided for timing of the harmonics during the intro
Jimmy played this on a Gibson Les Paul 

*Intro*(pickups set to Treble)
Guitar(all guitar here is natural harmonics)
(With wah)
e|-------------------------(12)--------------
b|----------------------(12)-----------------
g|-------------------------------------------
d|------------------------------------------- 
a|------------------------------------------- 
E|------------------------------------------- 

Bass
g|------------------------------------------- 
d|------------------------------------------- 
a|---0--10~~9~~8~~7~~\-----5~~4~~3~~2~~------ 
e|-0----------------------------------------- 

			
			*here bend the G string 
Guitar			above the nut
e|----(5)------------------------------------ 
b|-(5)--------------------------------------- 
g|--------------------(12)~~~~ -------------- 
d|------------------------------------------- 
a|------------------------------------------- 
E|------------------------------------------- 

Bass
g|------------------------------------------- 
d|------------------------------------------- 
a|---0--10~~9~~8~~7~~\-----5~~4~~3~~2~~------ 
e|-0-----------------------------------------


Guitar
e|----------(12)-----(5)--------------------- 
b|-------(12)------(5)-(5)------------------- 
g|-----------------------(5)----------------- 
d|------------------------------------------- 
a|------------------------------------------- 
E|------------------------------------------- 

Bass
g|------------------------------------------- 
d|------------------------------------------- 
a|---0--10~~9~~8~~7~~\-----5~~4~~3~~2~~------ 
e|-0-----------------------------------------


Guitar
e|------------------------------------------- 
b|------------------------(5)---------------- 
g|----(12)----------------(5)---------------- 
d|------------------------------------------- 
a|------------------------------------------- 
E|------------------------------------------- 

Bass
g|------------------------------------------- 
d|------------------------------------------- 
a|---0--10~~9~~8~~7~~\-----5~~4~~3~~2~~------ 
e|-0-----------------------------------------


At this point the guitar is pretty much the same as the bass
so only the guitar is tabbed here.

*Main Riff*
Here are two variations of the main riff
e|-------------------------------------------
b|-------------------------------------------
g|-------------------------------------------
d|-------------------------------------------
a|---0--10--9--8--7\----5--4--3--2-----------
E|-0-----------------------------------------


e|-------------------------------------------
b|-------------------------------------------
g|-------------------------------------------
d|-------------------------------------------
a|---0--10--9--7b--7\----5--4--2b--2---------
E|-0-----------------------------------------


In Jimmy's live performances he often plays this variation.
I think it sounds great so I've included it here. Experiment.

e|------------------------------------------- 
b|------------------------------------------- 
g|------------------------------------------- 
d|------------------------------------------- 
a|---0--14--13--12--10\----5--4--3--2-------- 
E|-0----------------------------------------- 


the main riff is played 3 times and then it transitons into:

*Fill*
e|------------------------------------------- 
b|------------------------------------------- 
g|------------------------------------------- 
d|-----------7h9-------------7h9------------- 
a|--9-9-9-7h9---7h9-9-9-9-7h9---7h9---------- 
E|--7-7-7-----------7-7-7-------------------- 


e|------------------------------------------- 
b|------------------------------------------- 
g|------------------------------------------- 
d|-----------7h9-------------7h9------------- 
a|--9-9-9-7h9---7h9-9-9-9-7h9---7h9--7------- 
E|--7-7-7-----------7-7-7------------7-------


After this fill the main riff is played 4 more times, followed

Then the lead in on the bow solo:

Semi-P.M.
e|------------------------------------------- 
b|------------------------------------------- 
g|------------------------------------------- 
d|-----------5-5-5--------------------------- 
a|-7-7-7--5--------7-------------------------
E|------------------------------------------- 
That's all there is in the studio version, but it can be extended to 
however long and the d string on the 7th fret can also be used.

OK. Here is the coolest part of the song, the bow solo. I would tab 
out the studio version, but there is so much delay and overdubbing 
that it is nearly impossible to play. So, what I will do is tab out
various solo methods that Jimmy uses in his live performances and let
you patch together what sections you like.

Ok, Here we go.
With bow, reverb
e|------------------------------------------------------------------- 
b|------------------------------------------------------------------- 
g|------------------------------------------------------------------- 
d|------------------------------------------------------------------- 
a|------------------------------------------------------------------- 
E|----3\0-----3\0------5\0-----7\0-----7/10---7/10---7\0-------------


e|---12~~~~~ 14--15--17-------12~~~~~~ 14--15--17---19~~~~ ----------
b|-------------------------------------------------------------------
g|-------------------------------------------------------------------
d|-------------------------------------------------------------------
a|-------------------------------------------------------------------
E|-------------------------------------------------------------------


e|----------------------------------------------
b|----------------------------------------------
g|----------------------------------------------
d|----------------------------------------------
a|----------------------------------------------
E|----9-10-12~~~~~~ -12/ \12--10--7--5--3~~~~~~~


With bow, with wah			*sharply, wah
e|--12-----15-----12-----15-------------12/15----12/15----
b|--12-----15-----12-----15-------------12/15----12/15----
g|--12-----15-----12-----15-------------12/15----12/15----
d|--12-----15-----12-----15-------------------------------
a|--------------------------------------------------------
E|--------------------------------------------------------

In Jimmy's live performances there is a section where he stops and plays
These chords are played in barre form, with a delay set at up to 1 second.

e|------------------------------------- 
b|------------------------------------- 
g|-14-------14------12------7-----9---- 
d|-14-------14------12------7-----9---- 2x
a|-12-------12------10------5-----7---- 
E|-12-------12------10------5-----7----  



e|------------------------------------- 
b|------------------------------------- 
g|-14--14----12--12----7--7----9--9---- 
d|-14--14----12--12----7--7----9--9---- 3x
a|-12--12----10--10----5--5----7--7---- 
E|-12--12----10--10----5--5----7--7---- 



e|----------------------------------------5---
b|----------------------------------------5---
g|-11-11-12-12-14-14-16-14-12-11-9-7------5---
d|-11-11-12-12-14-14-16-14-12-11-9-7------5---
a|-9--9--10-10-12-12-14-12-10-9--7-5----------
E|-9--9--10-10-12-12-14-12-10-9--7-5----------


				*bend above nut
e|-------------------------------------------
b|-------------------------------------------
g|-------------------------------------------
d|-------------------------------------------
a|-------------------------------------------
E|-3\0--3\0--9\0---5\0--3\\\0~~~~~~~~~~ -----

And just when you thought you were off the hook, here's the solo!
***(((thanks very much to Matty for tabbing this out)))***


Pre Solo:
E-|----------------------------------------------|-----------------------------|
B-|----------------------------------------------|15-14-12-10-8-7-5-8-7-3-2----|
G-|-------------12-14-12----------------12-14-12-|--------------------------3/-|
D-|-------12-14----------14-------12-14----------|-----------------------------|
A-|-12-14-------------------12-14----------------|-----------------------------|
E-|----------------------------------------------|-----------------------------|



Now heres the solo. If you can master this, Holy Sh*t.
e:----------------------------------------------------------15\12----15\12---|
B:---12--12-15\12--------12-15\12----------12-12-15\12-X-12-------12-------12|
G:14b16------------14b16----------14-14b16-----------------------------------|
D:---------------------------------------------------------------------------|
A:---------------------------------------------------------------------------|
E:---------------------------------------------------------------------------|
e:15\12---15\12--15\12------12-15b17-15-12----12-----------------------------|
B:------12-----12-----12-12-12-------------15-15-15\12-----------------------|
G:-----------------------------------------------------14\12----12-14-12-14--|
D:-----------------------------------------------------------14--------------|
A:---------------------------------------------------------------------------|
E:---------------------------------------------------------------------------|
e:---------------------------------------------------------------------------|
B:--------15-----------------------------------------------------------------|
G:12-14b16----16\14\12-14\12---------------------------------!9!b!11!--9b11--|
D:--------------------------14-12-14-12/14\12----12/14\12--0-----------------|
A:--------------------------------------------14-----------------------------|
E:---------------------------------------------------------------------------|
e:---------------------------------------------------------------------------|
B:---------------------------------------------------------------------------|
G:---7-9-7-7-7\6-6\5-6-7\6-4-6\4\3-4-2-2\0-4-2\0---0-0-0b2--0-0b2-0-0b2-0-0b2|
D:---------------------------------------------------------------------------|
A:---------------------------------------------------------------------------|
E:---------------------------------------------------------------------------|
e:---------------------------------------------------------15\12-15-15b12----|
B:------------------------------------------------------12-------12-12----12-|
G:--0-0-0b4-0-0b2--0-0b4b4-0-0b2-0-0b4-0-0b3-0-0-b4r0------------------------|
D:---------------------------------------------------------------------------|
A:---------------------------------------------------------------------------|
E:---------------------------------------------------------------------------|
e:15\12----15\12----15--15\12-----15--15b17-15-17---15b17-15b17-15-12-----12-|
B:------12-------12------------12-------------------------------------15-----|
G:---------------------------------------------------------------------------|
D:---------------------------------------------------------------------------|
A:---------------------------------------------------------------------------|
E:---------------------------------------------------------------------------|
e:---------------------------------------------------------------------------|
B:15\12--------------------------15------------------------------------------|
G:-------14\12----12-14-12-14/16----16\14\12-14\12---------------------------|
D:-------------14----------------------------------14-12/14\12----12-12------|
A:-------------------------------------------------------------14----12/14\12|
E:---------------------------------------------------------------------------|
e:--------------------------------------------------------------------19b21--|
B:----------------------------17b20---17b19-17b20--17b19-15-15--17-17--------|
G:---------------------------------------------------------------------------|
D:---------------------------------------------------------------------------|
A:/14\12---------10--12-10---------------------------------------------------|
E:------------12-------------------------------------------------------------|
e:19\18--17------------------------------------------------------------------|
B:----------20-20\17----17-20--17/20\17-----17-20-17/20\17-----17-20-17/20\17|
G:-------------------19------------------19-----------------19---------------|
D:---------------------------------------------------------------------------|
A:---------------------------------------------------------------------------|
E:---------------------------------------------------------------------------|
e:---------------------------------------------------------------------------|
B:----17-20-17/20\17----17-20-20b22--19b21-21b22-19b20-19b20b22--------20b22b|
G:-19----------------19------------------------------------------------------|
D:----------------------------------------------------------------0-0--------|
A:---------------------------------------------------------------------------|
E:---------------------------------------------------------------------------|
e:-------------------------------------19b22r19----------19b22r19------------|
B:24r20\17--17-17--20b24r20-17-17-17-17----------17-17-17----------17-17-17--|
G:---------------------------------------------------------------------------|
D:---------------------------------------------------------------------------|
A:---------------------------------------------------------------------------|
E:---------------------------------------------------------------------------|
e:---------------------------------------------------------------------------|
B:---17-20b23r20--17-17----17b20r17-15-15--15b17r15--------------------------|
G:----------------------0--17-----------------------12-12----12b14r12-9-9--9-|
D:---------------------------------------------------------------------------|
A:---------------------------------------------------------------------------|
E:---------------------------------------------------------------------------|
e:---------------------------------------------------------------------------|
B:-----------------------------------------------------4\2\0-------------!4!-|
G:9b11-9b11r9--7--4b6r4--4--4\2\0-2--4\2\0-2--4\2\0-2--4\2\0-2--2--4--2---4--|
D:-------------0-------------------------------------------------------------|
A:---------------------------------------------------------------------------|
E:---------------------------------------------------------------------------|
e:---------------------------------------|
B:----2/4\2\0----------------------------|
G:----2/4\2\0--0--2\0/2\0/2--------------|
D:--------------------------4\2\0--------|
A:--------------------------------4\2\0--|
E:---------------------------------------|

    Chords played after the solo
                                                         
E-|------------------------------|
B-|------------------------------|
G-|-9-9-9-9-7-----9-9-9-9-12-----|
D-|-9-9-9-9-7-7-7-9-9-9-9-12-----|
A-|-7-7-7-7-5-7-7-7-7-7-7-10-----|
E-|-----------5-5----------------|


*Fill*
e|------------------------------------------- 
b|------------------------------------------- 
g|------------------------------------------- 
d|-----------7h9-------------7h9------------- 
a|--9-9-9-7h9---7h9-9-9-9-7h9---7h9---------- 
E|--7-7-7-----------7-7-7-------------------- 


e|------------------------------------------- 
b|------------------------------------------- 
g|------------------------------------------- 
d|-----------7h9-------------7h9------------- 
a|--9-9-9-7h9---7h9-9-9-9-7h9---7h9--7------- 
E|--7-7-7-----------7-7-7------------7-------

and then the main riff is played twice more...and another fill

*Fill*
e|------------------------------------------- 
b|------------------------------------------- 
g|------------------------------------------- 
d|-----------7h9-------------7h9------------- 
a|--9-9-9-7h9---7h9-9-9-9-7h9---7h9---------- 
E|--7-7-7-----------7-7-7-------------------- 


e|------------------------------------------- 
b|------------------------------------------- 
g|------------------------------------------- 
d|-----------7h9-------------7h9------------- 
a|--9-9-9-7h9---7h9-9-9-9-7h9---7h9--7------- 
E|--7-7-7-----------7-7-7------------7-------


Coda							Repeat this
E|-----------------------------------------------------|-----------------
B|-----------------------------------------------------|----------7p6p5--
G|-----------------------------------------------------|-0-0-0-0---------
D|--5-5-5-3-7-7-7-5-10-10-10-7-11-11-11-9-14-14-14-12--|-----------------
A|-----------------------------------------------------|-----------------
E|--3-3-3-1-5-5-5-3-8--8--8--5-9--9--9--7-12-12-12-10--|-----------------

Close
E|---------------------|
B|---------------------|
G|-7-7-7---7-7-7-9-----|
D|-7-7-7---7-7-7-9-----|
A|-5-5-5---5-5-5-7-----|
E|---------------0-----|
And there it is.
Dazed And Confused in its entirety. Now if you'll exscuse me, I'm a little
dazed and confused right now.

Please, any errors, suggestions, criticism, requests and feedback, esp. on the
bow solo parts, is welcome and greatly appreciated. Email me at:
---Greg
            

comments powered by Disqus
↑ Back to top | Led Zeppelin Tabs for Dazed And Confused. Lyrics for acoustic guitar and electric guitar. Tablatures and chords are parodies/interpretations of the original songs. You may use it for private study, scholarship, research or language learning purposes only