>
 >
Dazed And Confused 5

Dazed And Confused 5 Guitar Tabs

Led Zeppelin - Dazed And Confused 5 chords, tabs, tablatures, lyrics

Guitar lessons | Add/correct | Request | Top 50 tabs Artists:  A B C D E F G H I J K L M N O P Q R S T U V W X Y Z 0-9

Dazed And Confused 5 Guitar Tabs – Led Zeppelin

CD, Sheet music, Poster

Do you like Dazed And Confused 5? Share with your friends now
Bass TabsBass Tabs v2Bass Tabs v3Bass Tabs v4Bass Tabs v5ChordsDrum TabsTabsTabs v2Tabs v3Tabs v4Tabs v5Tabs v6Ukulele


Dec. 27th 2004

Key :
*  = Natural Harmonic
~  = Vibrato
br = Bend and release to original note
.  = Palm Mute
h  = Hammer-on
p  = Pull-off


Intro  *  *                    * *     *
e|-------12---------------|------5-----------------|
B|----12------------------|----5-------------------|
G|------------------------|-----------12~----------|
D|------------------------|------------------------|
A|------------------------|------------------------|
E|------------------------|------------------------|

       *  *                    * * * *
e|-------12---------------|------5-----------------|
B|----12------------------|----5---5---------------|
G|------------------------|----------5~------------|
D|------------------------|------------------------|
A|------------------------|------------------------|
E|------------------------|------------------------|

                *
e|------------------------|------------------------|
B|-12----------12---------|------------------------|
G|-12----------12---------|------------------------|
D|------------------------|------------------------|
A|------------------------|------------------------|
E|------------------------|------------------------|

Riff 1a
  (Using Vibrato on each note except the open E's)
e|------------------------|------------------------|
B|------------------------|------------------------|
G|------------------------|------------------------|
D|------------------------|------------------------|
A|-------10--9--8br--7----|---5--4--3br--2---------|
E|0-0-0-------------------|0-----------------------|
  . . .

e|------------------------|------------------------|
B|------------------------|------------------------|
G|------------------------|------------------------|
D|------------------------|------------------------|
A|---10--9--8br-7---------|---5--4--3br-2----------|
E|------------------------|0-----------------------|

e|------------------------|------------------------|
B|------------------------|------------------------|
G|------------------------|------------------------|
D|------------------------|------------------------|
A|---10--9--8br-7---------|---5--4--3br-2----------|
E|0-----------------------|0-----------------------|

Riff 2
e|------------------------|
B|------------------------|
G|--4-4-4-------2h4-------| X 4
D|--4-4-4--2h4-------2h4--|
A|--2-2-2-----------------|
E|------------------------|

Riff 1b
   (Using Vibrato on each note except the open E's)
e|------------------------|------------------------|
B|------------------------|------------------------|
G|------------------------|------------------------|
D|-2----------------------|------------------------|
A|-2-----10--9--8br--7----|---5--4--3br--2---------|
E|-0--0-------------------|0-----------------------|
      .

e|------------------------|------------------------|
B|------------------------|------------------------|
G|------------------------|------------------------|
D|------------------------|------------------------|
A|---10--9--8br-7---------|---5--4--3br-2----------|
E|0-----------------------|0-----------------------|

e|------------------------|------------------------|
B|------------------------|------------------------|
G|------------------------|------------------------|
D|------------------------|------------------------|
A|---10--9--8br-7---------|---5--4--3br-2----------|
E|0-----------------------|0-----------------------|

e|------------------------|------------------------|
B|------------------------|------------------------|
G|------------------------|------------------------|
D|------------------------|------------------------|
A|---10--9--8br-7---------|---5--4--3br-2----------|
E|0-----------------------|0-----------------------|

Riff 2
e|------------------------|
B|------------------------|
G|--4-4-4-------2h4-------| X 4
D|--4-4-4--2h4-------2h4--|
A|--2-2-2-----------------|
E|------------------------|

Bow Section

For the bow part I just play around with a metal slide, 
I'll leave the violin bow to Jimmy here.
(-grins- Improv time)

Pre-Solo

e|------------------------|------------------------|
B|------------------------|------------------------|
G|-------------12-14-12---|--------------12-14-12~-|
D|-------12-14----------14|--------12-14-----------|
A|-12-14------------------|-12-14------------------|
E|------------------------|------------------------|

e|------------------------|------------------------|
B|------------------------|------------------------|
G|-------------12-14-12---|--------------12-14-----|
D|-------12-14----------14|--------12-14-------0---|
A|-12-14------------------|-12-14------------------|
E|------------------------|------------------------|

e|------------------------|------------------------|
B|--15----14----12----10--|--8---7---5-------------|
G|--19----18----16----14--|--12--10--9-------------|
D|------------------------|------------------------|
A|------------------------|------------------------|
E|------------------------|------------------------|

e|------------------------|------------------------|
B|-8---7---3--------------|--2---------------------|
G|-12--10--6--------------|--5---------------------|
D|------------------------|------------------------|
A|------------------------|------------------------|
E|------------------------|------------------------|

Solo


-his symbol key-
 b  :bend
 r  :release b
 X  :rest
 /\ :slide
 !9!:Harmonic

e|--------------------------------------------------------15\12----15\12---|
B|---12--12-15\12-------12-15\12---------12-12-15\12-X-12-------12-------12|
G|14b16-----------14b16----------14-14b16----------------------------------|
D|-------------------------------------------------------------------------|
A|-------------------------------------------------------------------------|
E|-------------------------------------------------------------------------|

e|15\12---15\12--15\12------12-15b17-15-12----12---------------------------|
B|------12-----12-----12-12-12-------------15-15-15\12---------------------|
G|-----------------------------------------------------14\12----12-14-12-14|
D|-----------------------------------------------------------14------------|
A|-------------------------------------------------------------------------|
E|-------------------------------------------------------------------------|

e|-------------------------------------------------------------------------|
B|--------15---------------------------------------------------------------|
G|12-14b16----16\14\12-14\12---------------------------------!9!b!11!--9b11|
D|--------------------------14-12-14-12/14\12----12/14\12--0---------------|
A|--------------------------------------------14---------------------------|
E|-------------------------------------------------------------------------|

e|-------------------------------------------------------------------------|
B|-------------------------------------------------------------------------|
G|--7-9-7-7-7\6-6\5-6-7\6-4-6\4\3-4-2-2\0-4-2\0--0-0-0b2--0-0b2-0-0b2-0-0b2|
D|-------------------------------------------------------------------------|
A|-------------------------------------------------------------------------|
E|-------------------------------------------------------------------------|

e|-------------------------------------------------------15\12-15-15b12----|
B|----------------------------------------------------12-------12-12----12-|
G|-0-0-0b4-0-0b2--0-0b4b4-0-0b2-0-0b4-0-0b3-0-0-b4r0-----------------------|
D|-------------------------------------------------------------------------|
A|-------------------------------------------------------------------------|
E|-------------------------------------------------------------------------|

e|15\12----15\12----15--15\12-----15--15b17-15-17-15b17-15b17-15-12----12--|
B|------12-------12------------12-----------------------------------15-----|
G|-------------------------------------------------------------------------|
D|-------------------------------------------------------------------------|
A|-------------------------------------------------------------------------|
E|-------------------------------------------------------------------------|

e|-------------------------------------------------------------------------|
B|15\12------------------------15------------------------------------------|
G|------14\12---12-14-12-14/16----16\14\12-14\12---------------------------|
D|------------14---------------------------------14-12/14\12----12-12------|
A|-----------------------------------------------------------14----12/14\12|
E|-------------------------------------------------------------------------|

e|------------------------------------------------------------------19b21--|
B|--------------------------17b20---17b19-17b20--17b19-15-15--17-17--------|
G|-------------------------------------------------------------------------|
D|-------------------------------------------------------------------------|
A|/14\12---------10--12-10-------------------------------------------------|
E|------------12-----------------------------------------------------------|

e|19\18--17----------------------------------------------------------------|
B|----------20-20\17----17-20--17/20\17----17-20-17/20\17----17-20-17/20\17|
G|-------------------19-----------------19----------------19---------------|
D|-------------------------------------------------------------------------|
A|-------------------------------------------------------------------------|
E|-------------------------------------------------------------------------|

e|-------------------------------------------------------------------------|
B|----17-20-17/20\17----17-20-20b22--19b21-21b22-19b20-19b20b22------20b22b|
G|-19----------------19----------------------------------------------------|
D|--------------------------------------------------------------0-0--------|
A|-------------------------------------------------------------------------|
E|-------------------------------------------------------------------------|

e|-------------------------------------19b22r19---------19b22r19-----------|
B|24r20\17--17-17--20b24r20-17-17-17-17---------17-17-17---------17-17-17--|
G|-------------------------------------------------------------------------|
D|-------------------------------------------------------------------------|
A|-------------------------------------------------------------------------|
E|-------------------------------------------------------------------------|

e|-------------------------------------------------------------------------|
B|--17-20b23r20--17-17----17b20r17-15-15--15b17r15-------------------------|
G|---------------------0--17-----------------------12-12---12b14r12-9-9--9-|
D|-------------------------------------------------------------------------|
A|-------------------------------------------------------------------------|
E|-------------------------------------------------------------------------|

e|-------------------------------------------------------------------------|
B|----------------------------------------------------4\2\0-------------!4!|
G|9b11-9b11r9--7--4b6r4-4--4\2\0-2--4\2\0-2--4\2\0-2--4\2\0-2--2--4--2---4-|
D|-------------0-----------------------------------------------------------|
A|-------------------------------------------------------------------------|
E|-------------------------------------------------------------------------|

e|---------------------------------------|
B|----2/4\2\0----------------------------|
G|----2/4\2\0--0--2\0/2\0/2--------------|
D|--------------------------4\2\0--------|
A|--------------------------------4\2\0--|
E|---------------------------------------|
End Solo

Riff 3
e|-------------------------|------------------------|
B|-9-----------------------|-9--12------------------|
G|-9---7--6----------------|-9--12------------------|X3
D|-9---7--7----------------|-9--12------------------|
A|-7---5--7----------------|-7--10------------------|
E|-0------5----------------|-0----------------------|


Riff 2
e|------------------------|
B|------------------------|
G|--4-4-4-------2h4-------| X 4
D|--4-4-4--2h4-------2h4--|
A|--2-2-2-----------------|
E|------------------------|

Riff 1b
   (Using Vibrato on each note except the open E's)
e|------------------------|------------------------|
B|------------------------|------------------------|
G|------------------------|------------------------|
D|-2----------------------|------------------------|
A|-2-----10--9--8br--7----|---5--4--3br--2---------|
E|-0--0-------------------|0-----------------------|
      .

e|------------------------|------------------------|
B|------------------------|------------------------|
G|------------------------|------------------------|
D|------------------------|------------------------|
A|---10--9--8br-7---------|---5--4--3br-2----------|
E|0-----------------------|0-----------------------|

e|------------------------|------------------------|
B|------------------------|------------------------|
G|------------------------|------------------------|
D|------------------------|------------------------|
A|---10--9--8br-7---------|---5--4--3br-2----------|
E|0-----------------------|0-----------------------|

e|------------------------|------------------------|
B|------------------------|------------------------|
G|------------------------|------------------------|
D|------------------------|------------------------|
A|---10--9--8br-7---------|---5--4--3br-2----------|
E|0-----------------------|0-----------------------|

Riff 2
e|------------------------|
B|------------------------|
G|--4-4-4-------2h4-------| X 4
D|--4-4-4--2h4-------2h4--|
A|--2-2-2-----------------|
E|------------------------|

E|------------|------------|------------|-------------|
B|------------|------------|------------|-------------|
G|9-9-9-9-7---|------------|------------|-------------|
D|9-9-9-9-7---|7-7-7-7-5---|9-9-9-9-7---|12-12-12-12-9|
A|7-7-7-7-5---|------------|------------|-------------|
E|------------|5-5-5-5-3---|7-7-7-7-5---|10-10-10-10-7|

e|------------------------|
B|------------------------|
G|9-9-9-9-7---------------|
D|------------------------|
A|7-7-7-7-5---------------|
E|------------------------|

e|------------------------|   |------------------------|
B|------------------------|   |------------------------|
G|--------7p6p5-----------|X7 |------------------------|
D|------------------------|   |------------------------|
A|--0000------------------|   |--0000------------------|
E|------------------------|   |------------------------|
    ....                         ....

e|------------------------|   |------------------------|
B|------------------------|   |------------------------|
G|-7-7-7-7-7--------------|X7 |-7-7-7-7-9-9------------|
D|-7-7-7-7-7--------------|   |-7-7-7-7-9-9------------|
A|-5-5-5-5-5--------------|   |-5-5-5-5-7-7------------|
E|------------------------|   |---------0-0------------|
                                        .

-Dazed and confused is copywrited by Led Zeppelin, and Jimmy Page, 
they retain all rights and ownership.





Comments


Popular Led Zeppelin tabs & chords
Stairway To Heaven 4 Chords
Ten Years Gone Chords
For Your Life Drum Tabs
Babe Im Gonna Leave You 3 Tabs
Carouselambra Tabs
Dancing Days 2 Tabs
How Many More Times Tabs
Ramble On 2 Tabs
Stairway To Heeavenn Tabs
When The Levee Breaks 1 Tabs


Song lyrics



↑ Back to top | Tablatures and chords are parodies/interpretations of the original songs. You may use it for private study, scholarship, research or language learning purposes only
© 2014 AZChords.com Contact us | Privacy policy | DMCA | Add/correct tabs | Request tabs | Top 50 tabs