>
 >
Dazed And Confused 3

Dazed And Confused 3 Guitar Tabs

Led Zeppelin - Dazed And Confused 3 chords, tabs, tablatures, lyrics

Guitar lessons | Add/correct | Request | Top 50 tabs Artists:  A B C D E F G H I J K L M N O P Q R S T U V W X Y Z 0-9

Dazed And Confused 3 Guitar Tabs – Led Zeppelin

CD, Sheet music, Poster

Do you like Dazed And Confused 3? Share with your friends now
Bass TabsBass Tabs v2Bass Tabs v3Bass Tabs v4Bass Tabs v5ChordsDrum TabsTabsTabs v2Tabs v3Tabs v4Tabs v5Tabs v6Ukulele
-----------------------------------------------------------------------------
                Led Zeppelin - Dazed And Confused
-----------------------------------------------------------------------------

Standard Tuning

  12/8 time            ~~~ ~~~~~~~~~~~~~~~~~~~~~ ~~
E|------------------------|12----------------------|
B|---------------------12-|----------------------5-|
G|------------------------|------------------------|
D|------------------------|------------------------|
A|------------------------|------------------------|
E|------------------------|------------------------|

  ~~~~~~~~~~~~~~~~~~~~~
E|5-----------------------|------------------------|
B|------------------------|------------------------|
G|---------------------12-|12---12--12----12-------|
D|------------------------|------------------------|
A|------------------------|------------------------|
E|------------------------|------------------------|

      ~~~~~~~~~~~~~~~~~~~~~~~~~~~~~~~~~~~~~~~~~~~~~
E|------12----------5-----|------------------------|
B|----12----------5-----5-|------------------------|
G|------------------------|5-----------------------|
D|------------------------|------------------------|
A|------------------------|------------------------|
E|------------------------|------------------------|

             ~~~~~~~~~~~~~ 
E|------------------------|------------------------|
B|12---------12-----------|------------------------|
G|12---------12-----------|------------------------|
D|------------------------|------------------------|
A|------------------------|------------------------|
E|------------------------|----------------------0-|

E|15----14----13----12----|------------------------|
B|------------------------|15----14----13----12----|
G|------------------------|------------------------|
D|------------------------|------------------------|
A|10----9-----8-----7-----|5-----4-----3-----2-----|
E|----------------------0-|----------------------0-|

E|15----14----13----12----|------------------------|
B|------------------------|15----14----13----12----|
G|------------------------|------------------------|
D|------------------------|------------------------|
A|10----9-----8-----7-----|5-----4-----3-----2-----|
E|----------------------0-|----------------------0-|

E|------------------------|------------------------|
B|------------------------|------------------------|
G|------------------------|------------------------|
D|------------------------|------------------------|
A|10----9-----8-----7-----|5-----4-----3-----2-----|
E|----------------------0-|----------------------0-|

                           9/8 time
E|------------------------|------------------|
B|------------------------|------------------|
G|------------------------|------------------|
D|------------------------|------------------|
A|10----9-----8-----7-----|5-----4-----3---2-|
E|----------------------0-|------------------|

  6/8 time
E|------------|------------|------------|------------|
B|------------|------------|------------|------------|
G|4-4-4---24--|4-4-4---24--|4-4-4---24--|4-4-4---24--|
D|4-4-4-24--24|4-4-4-24--24|4-4-4-24--24|4-4-4-24--24|
A|2-2-2-------|2-2-2-------|2-2-2-------|2-2-2-------|
E|------------|------------|------------|------------|

  12/8 time
E|------15----14----13----|12----------------------|
B|------------------------|------15----14----13----|
G|------------------------|------------------------|
D|2-----5-----4-----3-----|2-----------------------|
A|2-----------------------|------5-----4-----3-----|
E|0---0-------------------|----0-------------------|

E|------15----14----13----|12----------------------|
B|12----------------------|------15----14----13----|
G|------------------------|------------------------|
D|------5-----4-----3-----|2-----------------------|
A|2-----------------------|------5-----4-----3-----|
E|----0-------------------|----0-------------------|

E|------15----14----13----|12----------------------|
B|12----------------------|------15----14----13----|
G|------------------------|------------------------|
D|------5-----4-----3-----|2-----------------------|
A|2-----------------------|------5-----4-----3-----|
E|----0-------------------|----0-------------------|

E|------15----14----13----|12----------------------|
B|12----------------------|------15----14----12----|
G|------------------------|------------------------|
D|------5-----4-----3-----|2-----------------------|
A|2-----------------------|------5-----4-----2-----|
E|----0-------------------|----0-------------------|

  6/8 time
E|------------|------------|------------|------------|
B|------------|------------|------------|------------|
G|4-4-4---24--|4-4-4---24--|4-4-4---24--|4-4-4---24--|
D|4-4-4-24--24|4-4-4-24--24|4-4-4-24--24|4-4-4-24--24|
A|2-2-2-------|2-2-2-------|2-2-2-------|2-2-2-------|
E|------------|------------|------------|------------|

               (w/ bow)
E|------------|------------|------------|------------|
B|------------|------------|------------|------------|
G|44442-------|------------|------------|------------|
D|44442-------|------------|------------|------------|
A|22220-------|------------|------------|------------|
E|------------|3---0-------|3---0-------|3---0-------|

E|------------|------------|------------|------------|
B|------------|------------|------------|------------|
G|------------|------------|------------|------------|
D|------------|------------|------------|------------|
A|------------|------------|------------|------------|
E|7---10------|--7---------|7---10------|----------12|

E|------------|------------|------------|------------|
B|------------|------------|------------|------------|
G|------------|------------|------------|------------|
D|------------|------------|------------|------------|
A|------------|------------|------------|------------|
E|14-12101210-|----------12|14-12101210-|------------|

E|------------|------------|------------|------------|
B|------------|------------|------------|------------|
G|------------|------------|------------|------------|
D|------------|------------|------------|------------|
A|------------|------------|------------|------------|
E|-5----------|------------|------9-----|9-----------|

                            tremelo
E|------------|------------|14---10---12|------------|
B|------------|------------|14---10---12|------------|
G|------------|------------|------------|------------|
D|------------|------------|------------|------------|
A|------------|------------|------------|------------|
E|7-----------|1-----------|14----------|------------|

E|7---------10|14----------|7-----------|10----------|
B|7---------7-|12----------|7-----------|7-----------|
G|------------|------------|------------|------------|
D|------------|------------|------------|------------|
A|------------|------------|------------|------------|
E|------------|------------|------------|------------|

E|7-----------|10----------|7-----------|7-----------|
B|7-----------|7-----------|5-----------|5-----------|
G|------------|------------|------------|------------|
D|------------|------------|------------|------------|
A|------------|------------|------------|------------|
E|------------|------------|------------|------------|

E|10----------|12----121110|9-8-7-6-5-4-|3-2-1-1-----|
B|------------|------121110|9-8-7-6-5-4-|3-2-1-1-----|
G|------------|------------|------------|------------|
D|------------|------------|------------|------------|
A|------------|------------|------------|------------|
E|------------|------121110|9-8-7-6-5-4-|3-2-1-1-----|

E|1-----------|1-----------|1-----------|1-----------|
B|1-----------|1-----------|1-----------|1-----------|
G|------------|------------|------------|------------|
D|------------|------------|------------|------------|
A|------------|------------|------------|------------|
E|1-----------|1-----------|1-----------|1-----------|

               4/4 time
E|------------|----------------||----------------|----------------|
B|------------|----------------||----------------|----------------|
G|------------|----------------||----------------|----------------|
D|------------|----------------||----------------|----------------|
A|------------|----------------||----------------|----------------|
E|0-----------|----------------||----------------|----------------|

E|12--------------|----------------|----------------|----------------|
B|12--------------|----------------|----------------|----------------|
G|----------------|----------------|--------121412--|--------121412--|
D|----------------|----------------|----1214------14|----1214--------|
A|----------------|----------------|1214------------|1214------------|
E|----------------|----------------|----------------|----------------|

E|----------------|----------------|----------------|----------------|
B|----------------|--------------15|--------------14|--------------12|
G|--------121412--|--------1214--19|--------------18|--------------16|
D|----1214------14|----1214----0---|----------------|----------------|
A|1214------------|1214------------|----------------|----------------|
E|----------------|----------------|----------------|----------------|

E|----------------|----------------|----------------|----------------|
B|--------------10|--------------8-|--------7-------|5--------------8|
G|--------------14|--------------12|--------10------|9-------------12|
D|----------------|----------------|----------------|----------------|
A|----------------|----------------|----------------|----------------|
E|----------------|----------------|----------------|----------------|

E|----------------|----------------|----------------|----------------|
B|-------7--------|--------3-------|2---------------|------------0---|
G|----------------|--------6-------|5---------------|--------16----14|
D|----------------|----------------|----------------|----------------|
A|----------------|----------------|----------------|----------------|
E|----------------|----------------|----------------|----------------|

  /--3-\ /--3---\ /--3---\ /---3----\
E|--------------------------------------------------------------1512--
B|12--12-15-12-------12-15-12------1212-15-12-------12-15-12-12-------
G|15-----------14-16----------14-14-----------14-16-------------------
D|--------------------------------------------------------------------
A|--------------------------------------------------------------------
E|--------------------------------------------------------------------

  /--3---\ /--3---\ /--3---\ /--3---\
E|---15-12----15-12----15-12----15-12-----12-17-15-12----12-----------
B|12-------12-------12-------12-------121212----------15-151512-------
G|-------------------------------------------------------------14-----
D|--------------------------------------------------------------------
A|--------------------------------------------------------------------
E|--------------------------------------------------------------------

         /--3--\  /--3--\ /--3--\  /--3--\  /--3--\  /--3--\  /--3--\  
E|--------------------------------------------------------------------
B|---------------------------15---------------------------------------
G|------12-14-12-14-12-14-17----17-14-12-14-12------------------------
D|---14----------------------------------------14-12-14-12-14-12----12
A|---------------------------------------------------------------14---
E|--------------------------------------------------------------------

               ~~~~~~~~~~~      /--3-\         /--3-\/--3-\
E|--------------------------------------------------------------------
B|--------------------------------------------------------------------
G|-------------9----9-----7-977-76-6-5-6764643-4-2-204-2-0------------
D|1412------0---------------------------------------------------------
A|--------------------------------------------------------------------
E|--------------------------------------------------------------------

  /-----3-----\
E|--------------------------------------------------------------------
B|--------------------------------------------------------------------
G|--------------------------------------------------------------------
D|0---0---2------0-2--0-2--0-2---0-0--23---------0-2-0----------------
A|--------------------------------------------------------------------
E|--------------------------------------------------------------------

                                            /--3-\
E|----------------------------------------------15--------------------
B|------------------------------------------12------------------------
G|--------------------------------------------------------------------
D|3-----3-0-2---0-3---0-2---0-2-----0---------------------------------
A|--------------------------------------------------------------------
E|--------------------------------------------------------------------

         /---3---\/---3---\
E|-151512---15-------15-------15-1512---15--17-15-15--15-17---------17 
B|-1212--12----12-12----12-12--------15-------------------------------
G|--------------------------------------------------------------------
D|--------------------------------------------------------------------
A|--------------------------------------------------------------------
E|--------------------------------------------------------------------
               /---3---\/---3---\   /---3---\/---3--\/---3---\
E|15-12----12---------------------------------------------------------
B|------15---1512----------------------15-----------------------------
G|----------------14-12----12-14-12-16----14-14---12-14-12------------
D|----------------------14---------------------------------14---------
A|--------------------------------------------------------------------
E|--------------------------------------------------------------------
                        /---3---\
E|--------------------------------------------------------------------
B|------------------------------------------------20-----19-19-19-----
G|--------------------------------------------------------------------
D|1213-12---12-12-----------------------------------------------------
A|-------14----12-14121412----10--12-10-------------------------------
E|-------------------------12-----------------------------------------

                                                 /--3-\
E|---------------------21--191817-------------------------------------
B|----15-15------18-18------------20-2017---17-20172017---17-20-------
G|---------------------------------------19------------19-------------
D|--------------------------------------------------------------------
A|--------------------------------------------------------------------
E|--------------------------------------------------------------------

  /--3-\         /--3-\         /--3-\
E|--------------------------------------------------------------------
B|172017---17-20-172017---17-20-172017---17-20--22---21--22---21-22---
G|------19-------------19-------------19------------------------------
D|--------------------------------------------------------------------
A|--------------------------------------------------------------------
E|--------------------------------------------------------------------
                                       /--3-\
E|-----------------------------23--------------------23---------------
B|---------21-22-20--17-17-17-------17-17--17-17-17-------------------
G|--------------------------------------------------------------------
D|----00--------------------------------------------------------------
A|--------------------------------------------------------------------
E|--------------------------------------------------------------------

                                  /---3-\
E|--------------------------------------------------------------------
B|--171717---17-22--------17-17-------17-----1515----15--15-----------
G|--------------------------------0---17------------------------------
D|--------------------------------------------------------------------
A|--------------------------------------------------------------------
E|--------------------------------------------------------------------

                       /--3--\
E|--------------------------------------------------------------------
B|--------------------------------------------------------------------
G|15-12-12-----14-12---12---9--9---9---11--11-9-7-------6-----4-------
D|----------------------------------------------0---------------------
A|--------------------------------------------------------------------
E|--------------------------------------------------------------------
  /--3-\    /--3-\    /--3-\    /--3-\            ~~~~/3\         /--3-\/-3-\
E|---------------------------------------------------------------------------
B|------------------------------4-2-0-------------4---2420-------------------
G|4-2-0-2---4-2-0-2---4-2-0-2---4-2-0-2---2-4---2-4---24200--20202-----------
D|----------------------------------------------------------------4-2-0------
A|----------------------------------------------------------------------4-2-0
E|---------------------------------------------------------------------------

E|----------------|----------------|----------------|----------------|
B|9---------------|----------------|9-------------12|----------------|
G|9-------------7-|--6-------------|9-------------12|----------------|
D|9-------------7-|--7-------------|9-------------12|----------------|
A|7-------------5-|--7-------------|7-------------10|----------------|
E|0---------------|--5-------------|----------------|----------------|

E|----------------|----------------|----------------|----------------|
B|9---------------|----------------|9-------------12|----------------|
G|9-------------7-|--6-------------|9-------------12|----------------|
D|9-------------7-|--7-------------|9-------------12|----------------|
A|7-------------5-|--7-------------|7-------------10|----------------|
E|0---------------|--5-------------|----------------|----------------|

E|----------------|----------------|----------------|----------------|
B|9---------------|----------------|9-------------12|----------------|
G|9-------------7-|--6-------------|9-------------12|----------------|
D|9-------------7-|--7-------------|9-------------12|----------------|
A|7-------------5-|--7-------------|7-------------10|----------------|
E|0---------------|--5-------------|----------------|----------------|


  6/8 time
E|------------|------------|------------|------------|
B|------------|------------|------------|------------|
G|4-4-4---24--|4-4-4---24--|4-4-4---24--|4-4-4---24--|
D|4-4-4-24--24|4-4-4-24--24|4-4-4-24--24|4-4-4-24--24|
A|2-2-2-------|2-2-2-------|2-2-2-------|2-2-2-------|
E|------------|------------|------------|------------|

  12/8 time
E|15----14----13----12----|------------------------|
B|------------------------|15----14----13----12----|
G|------------------------|------------------------|
D|------------------------|------------------------|
A|10----9-----8-----7-----|5-----4-----3-----2-----|
E|----------------------0-|----------------------0-|

E|15----14----13----12----|------------------------|
B|------------------------|15----14----13----12----|
G|------------------------|------------------------|
D|------------------------|------------------------|
A|10----9-----8-----7-----|5-----4-----3-----2-----|
E|----------------------0-|----------------------0-|

E|------------------------|------------------------|
B|------------------------|------------------------|
G|------------------------|------------------------|
D|------------------------|------------------------|
A|10----9-----8-----7-----|5-----4-----3-----2-----|
E|----------------------0-|----------------------0-|

                           9/8 time
E|------------------------|------------------|
B|------------------------|------------------|
G|------------------------|------------------|
D|------------------------|------------------|
A|10----9-----8-----7-----|5-----4-----3---2-|
E|----------------------0-|------------------|

  6/8 time
E|------------|------------|------------|------------|
B|------------|------------|------------|------------|
G|4-4-4---24--|4-4-4---24--|4-4-4---24--|4-4-4---24--|
D|4-4-4-24--24|4-4-4-24--24|4-4-4-24--24|4-4-4-24--24|
A|2-2-2-------|2-2-2-------|2-2-2-------|2-2-2-------|
E|------------|------------|------------|------------|

E|------------|------------|------------|------------|
B|------------|------------|------------|------------|
G|99997-------|------------|------------|------------|
D|99997-------|77775-------|99997-------|121212129---|
A|77775-------|------------|------------|------------|
E|------------|55553-------|77775-------|101010107---|

            /3\        /3\    /3\       /3\    /3\       /3\    /3\
E|----------------|----------------|----------------|----------------|
B|----------------|----------------|----------------|----------------|
G|99997-----765---|----765----765--|----765----765--|----765----765--|
D|----------------|----------------|----------------|----------------|
A|77775-0000------|0000---0000-----|0000---0000-----|0000---0000-----|
E|----------------|----------------|----------------|----------------|

      /3\    /3\
E|----------------|------------|------------|------------|
B|----------------|------------|------------|------------|
G|----765----765--|77777-77777-|77777-77777-|77777-77777-|
D|----------------|77777-77777-|77777-77777-|77777-77777-|
A|----------------|55555-55555-|55555-55555-|55555-55555-|
E|----------------|------------|------------|------------|

E|------------|------------|
B|------------|------------|
G|77777-77779-|9-----------|
D|77777-77779-|9-----------|
A|55555-55557-|7-----------|
E|----------0-|0-----------|





Comments


Popular Led Zeppelin tabs & chords
Black Dog 6 Bass Tabs
Fool In The Rain Bass Tabs
Thank You Bass Tabs
Hey Hey What Can I Do 2 Chords
Hey Hey What Can I Do 2 Tabs
Moby Dick 5 Tabs
Stairway Tabs
Tangerine 1 Tabs
The Ocean Tabs
Stairway To Heaven 2 Ukulele


Song lyrics



↑ Back to top | Tablatures and chords are parodies/interpretations of the original songs. You may use it for private study, scholarship, research or language learning purposes only
© 2014 AZChords.com Contact us | Privacy policy | DMCA | Add/correct tabs | Request tabs | Top 50 tabs