» » »

Led Zeppelin, Dazed And Confused Bass tabs (ver.2)

Artists:  A B C D E F G H I J K L M N O P Q R S T U V W X Y Z # 

Dazed And Confused Bass tabs (ver.2)

Led Zeppelin Tabs
 Rating:
4/5 (4 votes)
Dazed And Confused lessons Tabs too difficult? Try these video lessons and learn fast
                                              Dazed and confused
                                (Led Zeppelin)


--------------------------------------|
--------------------------------------|     Repeat as many times needed
---------0-10-9-8-7/0-0-5-4-3-2-------|
--------------------------------------|


--------------0h2----------0h2--------|
---------0h2---------0h2--------------|     4x
--2-2-2-------------------------------|
--------------------------------------|


--------------------------------------|
--------------------------------------|
----0-10-9-8-7/0--0-5-4-3-2-----------|     Repeat as many times needed
--------------------------------------|


---------------0h2-----------0h2------|
---------0h2----------0h2-------------|     4x
-2-2-2--------------------------------|
--------------------------------------|


--------------------------------------|
--------------------------------------|
--------------------------------------|
--3-3-3-3-0--------5-5-5-5-0----------|


-------------------------------------------------------|
-5-----------7-------------5-----------------7---7-----|
---5---5-------7---7---------5---5---------7---5-------|
-----3---3-------5---5---------3---3-----5-------------|


-------------------------------------------------------|
--------------7-----------5----------------------------|
---5---5--------7---7-------5---5----------------------|
-3---3---3--------5---5-------3---3--------------------|


-------------------------------------------------------|
-------------------------------------------------------|
-------------------------------------------------------|
--3-3-3-3-3---3-3-3-3-3---3-3-3-3-3---3-3-3-3-3----0---|


--------------5--------------------------|
----------5-7---5-----------5-7-5--------|   Repeat before during and after
------5-7---------------5-7--------------|              the solo
--5-7---------------5-7------------------|


-----------------------------------------|
-----------------------------------------|   Repeat as many times needed
--7--5---------7---10--------------------|
-------5---------------------------------|


------------0h2-------0h2----------------|
-------0h2-------0h2---------------------|         4x
-2-2-2-----------------------------------|
-----------------------------------------|


-----------------------------------------|
-----------------------------------------|   Repeat as many times needed
-0-10-9-8-7/0--0-5-4-3-2-----------------|
-----------------------------------------|


------------0h2-------0h2----------------|
-------0h2-------0h2---------------------|         4x
-2-2-2-----------------------------------|
-----------------------------------------|


--------|
---4/0--|  repeat as many times needed
--------|
-2------|


----------------------------------------------|
----------------------------------------------|
----------------------------------------------|
-22222-22222-22222-22222-22222-22222--222220~-|


                                   Thats It
            
Submit corrections

comments powered by Disqus
↑ Back to top | Led Zeppelin Bass for Dazed And Confused. Lyrics for acoustic guitar and electric guitar. Tablatures and chords are parodies/interpretations of the original songs. You may use it for private study, scholarship, research or language learning purposes only