» » »

Dazed And Confused Tabs (ver.4)

Artists:  A B C D E F G H I J K L M N O P Q R S T U V W X Y Z # 

Dazed And Confused Tabs (ver.4)

Led Zeppelin
Rating:
0/5 (0 votes)

Hard to play? Try these video lessons and learn fast.
                Dazed and Confused by Jimmy Page
    Performed by Led Zeppelin on Led Zeppelin

    Ok, here's another nice number in E.  I've tried to
    make this one short and easy. It only includes the beginning
    of the bow and guitar solo, that should be enough to get you
    started. I didn't include the intro, since it's all ready in the
    archives. 
    
There are many variations to the main riff.  Just keep messing around
and you'll find something cool to do with it.

    Main Riff:               Chord Riff
                                       
E-|-------------------------------------------------|
B-|-------------------------------------------------|
G-|-------------------------------------------------|
D-|------------------------------9-9-9----7-9-------|
A-|-----10-9-8-7-----------------9-9-9-7-9----7-9---|
E-|-0-0---------0-10-9-8-7-------7-7-7--------------|


                                                                             
    First bit of bow solo
                                                     
E-|-------------------------------------------------|
B-|-------------------------------------------------|
G-|-------------------------------------------------|
D-|-------------------------------------------------|
A-|-------------------------------------------------|
E-|-3\0---3\0---3\0-----7/10----7/10----------------|


                                                                             
    First bit of solo
                                                         
E-|---------------------------------------------------------------------------
|
B-|----------------------------------------------15-14-12-10-8-7-5-8-7-3-2----
|
G-|-------------12-14-12----------------12-14-12---------------------------3/-
|
D-|-------12-14----------14-------12-14---------------------------------------
|
A-|-12-14-------------------12-14---------------------------------------------
|
E-|---------------------------------------------------------------------------
|


                                                                             
    Chords after solo
                                                         
E-|------------------------------|
B-|------------------------------|
G-|-9-9-9-9-7-----9-9-9-9-12-----|
D-|-9-9-9-9-7-7-7-9-9-9-9-12-----|
A-|-7-7-7-7-5-7-7-7-7-7-7-10-----|
E-|-----------5-5----------------|


                                                                             
    Coda                                                        Repeat
        
E-|------------------------------------------------------------------------|
B-|-----------------------------------------------------------------7p6p5--|
G-|--------------------------------------------------------0-0-0-0---------|
D-|-5-5-5-3-7-7-7-5-9-9-9-7-11-11-11-9-14-14-14-14-14-12-------------------|
A-|------------------------------------------------------------------------|
E-|-3-3-3-1-5-5-5-3-7-7-7-5--9--9--9-7-12-12-12-12-12-10-------------------|


                                                                             
       a few times, end with
                                                  
E-|---------------------------------|
B-|---------------------------------|
G-|-7-7-7---------------7-7-7-9-----|
D-|-7-7-7---------------7-7-7-9-----|
A-|-5-5-5---------------5-5-5-7-----|
E-|---------------------------0-----|
                                 
Ok, that should do, if you have any corrections or comments let me know.
            
Hard to play? Try these video lessons and learn fast. | Correct




comments powered by Disqus
↑ Back to top | Tablatures and chords are parodies/interpretations of the original songs. You may use it for private study, scholarship, research or language learning purposes only