» » »

Led Zeppelin, Dancing Days Bass tabs (ver.3)

Artists:  A B C D E F G H I J K L M N O P Q R S T U V W X Y Z # 

Dancing Days Bass tabs (ver.3)

Led Zeppelin Tabs
 Rating:
4/5 (4 votes)
Dancing Days lessons Tabs too difficult? Try these video lessons and learn fast
                Dancing Days
Led Zeppelin

G|--| |----------------|----------------|------------4---|----------------|
D|--|o|----------------|----------------|----------------|----------------|
A|--|o|------------1---|------------1---|----------------|------------1---|
E|3-| |----------3---3-|----------3---3-|----------0---3-|----------3---3-|

G|----------------|----------------|------------4---|----------------|
D|----------------|----------------|----------------|----------------|
A|------------1---|------------1---|----------------|------------1-3-|
E|----------3---3-|----------3---3-|----------0---3-|----------3-----|

G|----------------|----------------|----------------|----------------|
D|----------------|----------------|----------------|----------------|
A|--3-----3-3---4-|--4-----4-4---3-|--3-----3-3---3-|--3-----------3-|
E|----------------|----------------|----------------|--------3-3-----|
      Dancing days are here again....
      You told your mama I'd get you home....

G|----------------|----------------|----------------|----------------|
D|----------------|----------------|----------------|----------------|
A|--3-----3-3---4-|--4-----4-4---3-|--3-----3-3-3-3-|--3-3---3-3---3-|
E|----------------|----------------|----------------|------3-----5---|

G|----------------|----------------|----------------|----------------|
D|----------------|----------------|----------------|----------------|
A|--3-----3-3---1-|--1-----1-1---0-|--0-----0-0---0-|--0-0-0-0-----3-|
E|----------------|----------------|----------------|----------3-----|

G|----------------|----------------|----------------|----------------|
D|----------------|----------------|----------------|----------------|
A|--3-----3-3---1-|--1-----1-1---0-|--0-----0-0---0-|----0---------3-|
E|----------------|----------------|----------------|--3-------3-----|

G|----------------|----------------|----------------|----------------|
D|----------------|----------------|----------------|----------------|
A|--3-----3-3---4-|--4-----4-4---3-|--3-----3-3---3-|--3-3-3-3-----3-|
E|----------------|----------------|----------------|----------3-5---|

G|----------------|----------------|----------------|----------------|
D|----------------|----------------|----------------|----------------|
A|--------3-3---1-|--------1-1-1-0-|--0-----0-1---0-|------0-----0-3-|
E|----------------|----------------|------------3---|----3-----3-----|
                                                    __________________
                                                    |1.
G|----------------|----------------|----------------|---------------- |
D|----------------|----------------|----------------|----------------o|
A|--3-----3---3-1-|--1-----1-3---0-|--------0---0-0-|----0-----0-----o|
E|----------3-----|----------------|----------0-----|--0-----------3- |
 __________________
 |2.
G|----------------|----------------|----------------|----------------|
D|----------------|----------------|----------------|----------------|
A|--0-0-----0-----|------------1---|------------1---|----------------|
E|--------------3-|----------3---3-|----------3---3-|----------0---3-|

G|----------------|----------------|----------------|----------------|
D|----------------|----------------|----------------|----------------|
A|------------1---|------------1---|------------1---|----------------|
E|----------3---3-|----------3---3-|----------3---3-|----------0---3-|

G|----------------|----------------|----------------|----------------|
D|----------------|----------------|--------------1-|--1-1-1---1---1-|
A|------------1-3-|--3-3---3-3-3-4-|--4---4---4-----|----------------|
E|----------3-----|----------------|----------------|----------------|

G|----------------|----------------|----------------|----------------|
D|--1-1-1-1-1-1-1-|--1-1-1-1-1-1-3-|--3-3-3-3-3-3---|----------------|
A|----------------|----------------|----------------|------------1---|
E|----------------|----------------|--------------3-|----------3---3-|

G|----------------|----------------|----------------|----------------|
D|----------------|----------2-----|----------------|----------------|
A|------------1---|----------------|------------1---|------------1---|
E|--3-------3---3-|--3-----------3-|--3-------3---3-|--3-------3---3-|

G|----------------|----------------|----------------|----------------|
D|----------------|----------2-----|----------------|----------------|
A|------------1---|----------------|------------1---|------------1---|
E|--3-------3---3-|--3-----------3-|--3-------3---3-|--3-------3---3-|

G|----------------|----------------|----------------|----------------|
D|----------------|----------4-2---|----------------|----------------|
A|------------1---|----------------|----------1-1---|----------------|
E|--3-------3---3-|--3-----------3-|--3-----------3-|----------------|

Led Zeppelin Is #1 Band
            
Submit corrections

comments powered by Disqus
↑ Back to top | Led Zeppelin Bass for Dancing Days. Lyrics for acoustic guitar and electric guitar. Tablatures and chords are parodies/interpretations of the original songs. You may use it for private study, scholarship, research or language learning purposes only