>
 >
Dancing Days

Dancing Days Bass Tabs

Led Zeppelin - Dancing Days chords, tabs, tablatures, lyrics

Guitar lessons | Add/correct | Request | Top 50 tabs Artists:  A B C D E F G H I J K L M N O P Q R S T U V W X Y Z 0-9

Dancing Days Bass Tabs – Led Zeppelin

CD, Sheet music, Poster

Do you like Dancing Days? Share with your friends now
Bass TabsBass Tabs v2Bass Tabs v3ChordsTabsTabs v2Tabs v3
Led Zeppelin
Dancing Days
bass tab

  0.00         theme 1           t:130            4:4
|------`-------`-|------`-------`-|------`---------|------`-------`-|
|----------------|----------------|------------3-5-|----------------|
|--------------1-|--------------1-|----------------|--------------1-|
|3-.-.-=-----3---|3-----=-----3---|3-----=---------|3-----------3---|

|------`-------`-|------`-------`-|------`---------|------`-------`-|
|----------------|----------------|------------3-5-|----------------|
|--------------1-|--------------1-|----------------|--------------1-|
|3-----=-----3---|3-----=-----3---|3-----=---------|3-----------3---|

  0.17         verse 1
|----------------|----------------|----------------|----------------|
|----------------|-^^-------^-----|----------------|-----------^----|
|3-.-.-.-=-3-3-=-|4-----=---4-4-=-|3---.-.---3-3-=-|3---------3-0---|
|----------------|----------------|----------------|--------------3-|

|----------------|----------------|----------------|----------------|
|----------------|-^^-------^-----|----------------|----------------|
|3-----=---3-3-=-|4-----=---4-4-=-|3---3-=---3-3---|3---3-----3-----|
|----------------|----------------|----------------|------3-o---3-o-|

  0.33         chorus 1
|----------------|----------------|----------------|----------------|
|----------------|----------------|----------------|----------------|
|3-.-.-----3-3-.-|1---------1-1-.-|0---------------|---------^---^--|
|----------------|----------------|----------5-5-=-|5-=-5-5-5-4-3-o-|

|----------------|----------------|----------------|----------------|
|----------------|----------------|----------------|----------------|
|3---3-3-=-3-3---|1---1-1-=-1-1---|0---0-=---0-0---|-------------^--|
|----------------|----------------|--------------o-|5-5-o-5---=-3-o-|

  0.49         verse 2
|----------------|----------------|----------------|----------------|
|----------------|-^^-------^-----|----------------|----------------|
|3-.-.-=---3-3-=-|4-----=---4-4-=-|3-.-.-=---3-3-.-|3-.---------0-1-|
|----------------|----------------|----------------|----4-3-2-1-----|

|----------------|----------------|----------------|----------------|
|----------------|-^^--------^----|----------------|----------------|
|3---.-.-=-3-3-=-|4-----=---4-4-=-|3---.-.-=-3-3-=-|3-----------1---|
|----------------|----------------|----------------|----3-4-5-=---3-|

  1.06         chorus 2
|----------------|----------------|----------------|----------------|
|----------------|-------------^--|----------------|----------------|
|3---.-.---3-3-.-|1---.-.---1-1-o-|0-----=------^--|-----^----------|
|----------------|----------------|----------5-5-0-|5-=-5-3-5---3-5-|

|----------------|----------------|----------------|----------------|
|----------------|----------------|----------------|----------------|
|3---.-.-=-3-3---|1---.-.-=-1/3-=-|--^^^-=----^-^--|----------------|
|--------------3-|----------------|5---------5-o-5-|5-=-o-5---=-4-=-|

  1.22         theme 2
|----------------|----------------|------------`---|----------------|
|----------------|----------------|----------------|----------------|
|--------------1-|--------------1-|------------10=-|-------------^^-|
|3-----=-----3---|3-----=-----3---|3-----=---------|3-----=-----356-|

|----------------|----------------|----------------|----------------|
|----------------|----------------|------------5-=-|----------------|
|--------------1-|--------------1-|----------------|--------------1-|
|3-----=-----3---|3-----=-----3---|3-----=---------|3-----=-----3---|

  1.38         verse 3
|----------------|------------6---|----------------|----------------|
|----------------|-^^------046-6=-|----------------|----------------|
|3-3-3-=---3-3-=-|4-----=---------|3-----=------^--|3--..-----------|
|----------------|----------------|------------345-|----------5-4-3-|

|----------------|----------------|----------------|----------------|
|----------------|-^^-------------|----------------|----------------|
|3-----=---3-----|4---/-=---------|----------3---1-|3---3-3-3-3-1---|
|------------3-=-|----------9-=---|8-----=-----3---|--------------3-|

  1.55         chorus 3
|----------------|----------------|----------------|----------------|
|----------------|----------------|----------------|----------------|
|3---.-.---3-----|1---.-.---1/3-=-|-------------^--|----------------|
|------------3-=-|----------------|5-----=-----0-3-|5---3-5-----3-=-|

|----------------|----------------|----------------|----------------|
|----------------|----------------|----------------|----------------|
|.-----=---3-3-=-|1-----=---.-1-=-|0-----=---o--^--|----------------|
|----------------|----------------|------------5-o-|5-5-3-5-5-3-4-5-|

  2.11         verse 4
|----------------|----------------|----------------|----------------|
|----------------|-^^-------^-----|----------------|----------------|
|3-----=---3---=-|4-----=---4-4-=-|3-----=---3---1-|3---3-3-=--^----|
|----.---3---3---|----------------|--------3---3---|----------1-0-=-|

|5---------------|----------------|----------------|----------------|
|----5-----------|-^^-------------|----------------|----------------|
|------3-=-3---=-|4-----=---4-3-=-|3-----=---------|3---3-3-=-4-3-=-|
|------------3---|----------------|----------3-5-=-|----------------|

  2.27         chorus 4
|----------------|----------------|----------------|----------------|
|----------------|-----------^----|----------------|----------------|
|3-.-3-=-----3-=-|1---1-=---1-o-=-|-----------^----|-------^--------|
|----------3-----|--------3-------|5---.-.-=-5-o-3-|5---o-3-o-5---3-|

|----------------|----------------|----------------|----------------|
|----------------|-------------^--|----------------|----------------|
|3---.-.-=---3-=-|------=-----1-o-|-^^---=---------|---^------------|
|----------3-----|6-\\------3-----|5---------5-5-=-|5-5-4-5-----5-4-|

  2.44         theme 2
|----------------|----------------|------------0-=-|----------------|
|----------------|----------------|------------5-=-|----------------|
|--------------1-|-^^-----------1-|-^^-------------|--------------1-|
|3-----=-----3---|3-----=-----3---|3-----=---------|3-----=-----3---|

|----------------|----------------|----------------|----------------|
|----------------|----------------|------------5-=-|----------------|
|--------------1-|--------------1-|----------------|--------------1-|
|3-----=-----3---|3-----=-----3---|3-----=---------|3-----=-----3---|

  3.00         bridge
|----------------|----------------|----------------|----------------|
|----------------|----------------|----------------|----------------|
|3-3-3-.-.-3-3-3-|4---4-.-.-4-4-=-|6---6-=-6-=-6-=-|6---6-6-6-6---6-|
|----------------|----------------|----------------|----------------|

|----------------|----------------|
|----------------|----------------|
|6---6---6---6-/-|8-8-8-8-8-8-8-8-|
|----------------|----------------|

  3.12         theme 3
|----------------|----------------|----------------|----------------|
|----------------|----------------|------------5-=-|----------------|
|--------------1-|--------------1-|----------------|--------------1-|
|3-3---=-----3---|3-----=-----3---|3-----=---------|3-----=-----3---|

|------------`-`-|*---------------|----------------|----------------|
|----------------|----------------|------------5-=-|----------------|
|--------------1-|--------------1-|----------------|--------------1-|
|3-----=-----3---|3-----=-----3---|3-----=---------|3-----=-----3---|

|----------------|----------------|----------------|----------------|
|----------------|----------------|------------5---|----------------|
|--------------1-|--------------1-|--------------5-|--------------1-|
|3-----=-----3---|3-3-3-=-----3---|3---3-=---------|3---3-=-----3---|

|---------------
|-------------
|-----------
|3--------





Comments


Popular Led Zeppelin tabs & chords
Black Country Woman Chords
Living Loving Maid Drum Tabs
Moby Dick Drum Tabs
Stairway To Heaven Live Drum Tabs
Achilles Last Stand 1 Tabs
Achilles Last Stand 3 Tabs
Prison Blues 1 Tabs
Since I've Been Loving You Tabs
Some Phs Graff Pres 1 Tabs
Whole Lotta Love 2 Tabs


Song lyrics



↑ Back to top | Tablatures and chords are parodies/interpretations of the original songs. You may use it for private study, scholarship, research or language learning purposes only
© 2014 AZChords.com Contact us | Privacy policy | DMCA | Add/correct tabs | Request tabs | Top 50 tabs