>
 >
Communication Breakdown 5

Communication Breakdown 5 Guitar Tabs

Led Zeppelin - Communication Breakdown 5 chords, tabs, tablatures, lyrics

Guitar lessons | Add/correct | Request | Top 50 tabs Artists:  A B C D E F G H I J K L M N O P Q R S T U V W X Y Z 0-9

Communication Breakdown 5 Guitar Tabs – Led Zeppelin

CD, Sheet music, Poster

Do you like Communication Breakdown 5? Share with your friends now
Bass TabsBass Tabs v2Bass Tabs v3Bass Tabs v4ChordsDrum TabsTabsTabs v2Tabs v3Tabs v4Tabs v5Tabs v6Tabs v7Ukulele
Led Zeppelin

This song has 2 parts, Electric Guitars 1 and 2
Standard Tuning for both Guitars

Key:
(PM)=palm mute
(SM)=semi palm mute
x=finger mute
<>=harmonics on tagged note
h=hammer
/=slide up
\=slide down
p=pull off
Bb=bend 1 1/2 step
B=bend 1 step
b=bend 1/2 step
^=bend 1/4 step
R=return bend
()=optional note
~=vibrato
*=pick slide

Intro:
Guitar 1                                          4x
|----------------------------------------------|
|o---------------------------7------5----7----o|
|----------------------------7------6----7-----|
|----------------------------7------7----7-----|
|o--------------------------------------------o|
|-0--0--0--0--0--0--0--0--0--------------------|
|(PM.......................)
|Guitar 2                                          4x
|----------------------------------------------|
|o---------------------------7------5----7----o|
|----------------------------7------6----7-----|
|----------------------------7------7----7-----|
|o---------------------------5------7----5----o|
|-0--0--0--0--0--0--0--0--0---------5----------|
 (PM.......................)


Verse 1:                                       7x
|----------------------------------------------|
|o---------------------------7------5----7----o|
|----------------------------7------6----7-----|
|----------------------------7------7----7-----|
|o---------------------------5------7----5----o|
|-0--0--0--0--0--0--0--0--0--------------------|
|(PM.......................)
|                                              7x
|----------------------------------------------|
|o---------------------------7------5----7----o|
|----------------------------7------6----7-----|
|----------------------------7------7----7-----|
|o---------------------------5------7----5----o|
|-0--0--0--0--0--0--0--0--0---------5----------|
 (PM.......................)


|---------------------------------------------|
|---------------------------7------5----7-----|
|---------------------------7------6----7-----|
|---------------------------7------7----7-----|
|---------------------------5------7----5--0--|
|0--0--0--0--0--0--0--0--0-----------------0--|
|(PM......................)
|
|---------------------------------------------|
|---------------------------7------5----7-----|
|---------------------------7------6----7-----|
|---------------------------7------7----7-----|
|---------------------------5------7----5--0--|
|0--0--0--0--0--0--0--0--0---------5----------|
 (PM......................)


Chorus:
Guitars 1 and 2
|---------------------5---------------------5----------------------5----|
|---------------------5---------------------5----------------------5----|
|---------------------6---------------------6----------------------6----|
|---------------------5---------------------5----------------------5----|
|7--7--9--7--7--9--x--7----7--9--7--7--9----7----7--9--7--7--7--9--7----|
|5--5--5--5--5--5--x--5----5--5--5--5--5----5----5--5--5--5--5--5--5----|
(SM.................)     (SM...........)       (SM..............)

|------------------------------------------7----------------------7----|
|------------------------------------------7----------------------7----|
|------------------------------------------8----------------------8----|
|------------------------------------------7----------------------7----|
|7--9--7--7--7--9--7--9--9--11-9--9--9--11-9----9--11-9--9--9--11-9----|
|5--5--5--5--5--5--5--7--7--7--7--7--7--7--7----7--7--7--7--7--7--7----|
(SM.......................................)    (SM...............)

|-------------------7-------------------------|
|-------------------7-------------------------|
|-------------------8-------------------------|
|-------------------7-------------------------|
|9--11-9-9-9--9--11-9----9--11-9--9--9--11----|
|7--7--7-7-7--7--7--7----7--7--7--7--7--7--0--|
(SM................)    (SM...............)

Verse 2:
Guitar 1
|--------------------------------------------|
|---------------------------7------5----7----|
|---------------------------7------6----7----|
|---------------------------7------7----7----|
|---------------------------5------7----5----|
|0--0--0--0--0--0--0--0--0-------------------|
(PM.......................)

|--------------------------------------------|
|---------------------------7------5----7----|
|---------------------------7------6----7----|
|---------------------------7------7----7----|
|---------------------------5------7----5----|
|0--0--0--0--0--0--0--0--0-------------------|
(PM.......................)

Guitar 1
|-----------------------------------------------------------------------|
|---------------------------7------5----7-------------------------------|
|---------------------------7------6----7-------------------------------|
|---------------------------7------7----7-------------------------------|
|---------------------------5------7----5-------------------------------|
|0--0--0--0--0--0--0--0--0-------------------0--0--0--0--0--0--0--0--0--|
|(PM......................)                 (PM.......................)
|Guitar 2
|-----------------------------------------------------------------------|
|---9-------------------------------------------------------------------|
|---9--x-----9--9--9--9--9-<7>---------<7>---x--9--x--9--x--9--x--9--x--|
|---9--x--9--9--9--9--9--9--0-----<7>--<7>---x--9--x--9--x--9--x--9--x--|
|---7--x--7--7--7--7--7--7--0------0----0----x--7--x--7--x--7--x--7--x--|
|0--------0-------------------------------------------------------------|
(PM.......................)                 (PM....................)

|-------------------------------------------------------------|
|7------5----7-------------------------------7------5----7----|
|7------6----7-------------------------------7------6----7----|
|7------7----7-------------------------------7------7----7----|
|5------7----5-------------------------------5------7----5----|
|-------5---------0--0--0--0--0--0--0--0--0---------5---------|
|                (PM.......................)
|
|-------------------------------------------------------------|
|-------------------------------------------------------------|
|-------0-----------------------------------------------------|
|-------0----0----x--9--x--9-9-9--x--9-9--9---------0---------|
|0-----------0----x--7--x--7-7-7--x--7-7--7--0-----------0----|
|-------------------------------------------------------------|
                 (PM.......................)

|------------------------------------------------------------------------|
|----------------------------7------5----7-------------------------------|
|----------------------------7------6----7-------------------------------|
|----------------------------7------7----7-------------------------------|
|----------------------------5------7----5-------------------------------|
|0--0--0--0--0--0--0--0--0----------5---------0--0--0--0--0--0--0--0--0--|
|(PM......................)                  (PM.......................)
|
|------------------------------------------------------------------------|
|------------------------------------------------------------------------|
|------------------------------------------------------------------------|
|x--9--x--9-9-9--9--x--9--x---------0---------x--9--x--9--x--9--x--9--x--|
|x--7--x--7-7-7--7--x--7--x--0-----------0----x--7--x--7--x--7--x--7--x--|
|------------------------------------------------------------------------|
(PM........................)                  (PM......................)

|-------------------------------------------------------------|
|7------5----7-------------------------------7------5----7----|
|7------6----7-------------------------------7------6----7----|
|7------7----7-------------------------------7------7----7----|
|5------7----5-------------------------------5------7----5----|
|-------5---------0--0--0--0--0--0--0--0--0---------5---------|
|                (PM.......................)
|
|-------------------------------------------------------------|
|-------------------------------------------------------------|
|-------------------------------------------------------------|
|-------0---------x--9--x--9--x--9--x--9--x---------0---------|
|0-----------0----x--7--x--7--x--7--x--7--x--0----0------0----|
|-------------------------------------------------------------|
                 (PM.......................)

|-----------------------------------------------------------------------|
|---------------------------7------5----7-------------------------------|
|---------------------------7------6----7-------------------------------|
|---------------------------7------7----7-------------------------------|
|---------------------------5------7----5-------------------------------|
|0--0--0--0--0--0--0--0--0---------5---------0--0--0--0--0--0--0--0--0--|
|(PM......................)                 (PM.......................)
|
|-----------------------------------------------------------------------|
|-----------------------------------------------------------------------|
|-----------------------------------------------------------------------|
|x--9--x--9--x--9--x--9--x---------0---------x--9--x--9--x--9--x--9--x--|
|x--7--x--7--x--7--x--7--x--0------0----0----x--7--x--7--x--7--x--7--x--|
|-----------------------------------------------------------------------|
(PM.......................)                 (PM.......................)

|-----------------|
|7------5----7----|
|7------6----7----|
|7------7----7----|
|5------7----5----|
|-------5---------|
|
|-----------------|
|-----------------|
|-----------------|
|------------0----|
|0------5---------|
|-----------------|
       (PM)

Chorus:
Guitars 1 and 2
|---------------------5----------------------5----------------------5----|
|---------------------5----------------------5----------------------5----|
|---------------------6----------------------6----------------------6----|
|---------------------5----------------------5----------------------5----|
|7--------7--7--9h-x--7----7--9--7--7--7--9--7----7--9--7--7--7--9--7----|
|5--5--5--5--5-----x--5----5--5--5--5--5--5--5----5--5--5--5--5--5--5----|
(SM.................)     (SM..............)     (SM..............)

|------------------------------------------7----------------------7----|
|------------------------------------------7----------------------7----|
|------------------------------------------8----------------------8----|
|------------------------------------------7----------------------7----|
|7--9--7--7--7--9--7--9--9--11-9--9--9--11-9----9--11-9--12-9--11-9----|
|5--5--5--5--5--5--5--7--7--7--7--7--7--7--7----7--7--7--7--7--7--7----|
(SM.......................................)    (SM...............)

|7-----------------7----7-----------------------------------|
|7-----------------7----7--------------------9\-------------|
|8-----------------8----8--------------------9\-------------|
|7-----------------7----7--------------------9\-------------|
|9--11-9--9--9--11-9----9--11-9--9\---x--5/7-7\-------------|
|7--7--7--7--7--7--7----7--7--7--7\---x--5/7-7\-------------|
(SM...............)       (SM......)

Guitar solo:
Guitar 1 with wah wah
|----12-------------------14----------------------------------------12--------------|
|12------15p12-12---------12--15p12-12-12------12--15p12-12----12-------15p12-12----|
|14B--------------14-14B------------------14B---------------14-14B---------------14-|
|-----------------------------------------------------------------------------------|
|-----------------------------------------------------------------------------------|
|-----------------------------------------------------------------------------------|
|Guitars 1 and 2 are played at the same time but I can't line them up like that.
|Guitar 2 (SM through out until next chorus)
|-----------------------------------------|
|9-----------------------7------5----7----|
|9--9--9--9--9--9--9--9--7------6----7----|
|9--9--9--9--9--9--9--9--7------7----7----|
|7--7--7--7--7--7--7--7--5------7----5----|
|0--0--0--0--0--0--0--0---------5---------|

                                 with finger
                                 and pick.
|-----------------------------12------12--------------------------------------|
|12--12-15----12--12-15p12-12----------------------------------------------12-|
|14B-------14-14B----------------14B--14B--14p12----14-12b----------12-14B----|
|------------------------------------------------14--------14-12-14-----------|
|-----------------------------------------------------------------------------|
|-----------------------------------------------------------------------------|
|
|--------------------------------------------------------------------|
|9-----------------------9--7------6----7----9-----------------------|
|9--9--9--9--9--9--9--9--9--7------5----7----9--9--9--9--9--9--9--9--|
|9--9--9--9--9--9--9--9--9--7------7----7----9--9--9--9--9--9--9--9--|
|7--7--7--7--7--7--7--7--7--5------7----5----7--7--7--7--7--7--7--7--|
|0--0--0--0--0--0--0--0--0---------5---------0--0--0--0--0--0--0--0--|


|12------12------12--12--15B----15~~~~12------12-------|
|----15------15---------------------------15-----------|
|-------------------------------------------------14B--|
|------------------------------------------------------|
|------------------------------------------------------|
|------------------------------------------------------|
|
|------------------------------------------|
|9--7------5----7--9-----------------------|
|9--7------6----7--9--9--9--9--9--9--9--9--|
|9--7------7----7--9--9--9--9--9--9--9--9--|
|7--5------7----5--7--7--7--7--7--7--7--7--|
|0---------5-------0--0--0--0--0--0--0--0--|


|------12-------------------------------9------9------9-------|
|--12--------------------------------9--9--12--9--12--9-------|
|----------14B--Rp12------14--12-------------------------11B--|
|---------------------14----------12--------------------------|
|-------------------------------------------------------------|
|-------------------------------------------------------------|
|
|--------------------------------------------|
|9--7------6----7----9-----------------------|
|9--7------5----7----9--9--9--9--9--9--9--9--|
|9--7------7----7----9--9--9--9--9--9--9--9--|
|7--5------7----5----7--7--7--7--7--7--7--7--|
|0---------5---------0--0--0--0--0--0--0--0--|


|----------------------------------------------------------------------------|
|-----------------------------9-------------------10B-10--------10-----------|
|Rp9-11--11--9------9--9--11B---11BRp9-----11-9-9-----10B--10B-----10B-R-8---|
|---------------11---------------------11----------------------------------9-|
|----------------------------------------------------------------------------|
|----------------------------------------------------------------------------|
|
|----------------------------------------------------------------|
|9--7------5----7----9-----------------------9--7------5----7----|
|9--7------6----7----9--9--9--9--9--9--9--9--9--7------6----7----|
|9--7------7----7----9--9--9--9--9--9--9--9--9--7------7----7----|
|7--5------7----5----7--7--7--7--7--7--7--7--7--5------7----5----|
|0---------5---------0--0--0--0--0--0--0--0--0---------5---------|


|--------------------------7/9----9--9-\-7--7--0--|
|10--8---------------------7/9----9--9-\-7--7--0--|
|-------9--8--9------------7/9----9--9-\-7--7--0--|
|-------------------------------------------------|
|-------------------------------------------------|
|----------------12---x-0-------------------------|
|
|-------------------------------------------|
|9--9--9--9--9--9--9--9----7------5----7----|
|9--9--9--9--9--9--9--9----7------6----7----|
|9--9--9--9--9--9--9--9----7------7----7----|
|7--7--7--7--7--7--7--7----5------7----5----|
|0--0--0--0--0--0--0--0-----------5---------|


Chorus:
|--------------------------------------------------------------|
|----9--9------10--10------11------12------13------14------15--|
|11B-------12B---------13B-----14B-----15B-----16B-----17B-----|
|--------------------------------------------------------------|
|--------------------------------------------------------------|
|--------------------------------------------------------------|
|
|--------------------5----------------------5----|
|--------------------5----------------------5----|
|--------------------6----------------------6----|
|7-------------------5----------------------5----|
|7----9--7--7--7--9--7----7--9--7--7--7--9--7----|
|5----5--5--5--5--5--5----5--5--5--5--5--5--5----|
     (SM...........)     (SM..............)

|------------------------------------------------19Bb------19--18--|
|----16-----17--20p17-----17-20B--20BR-17-----17-------------------|
|18B----19B-----------19B-------------(0)-19-----------------------|
|------------------------------------------------------------------|
|------------------------------------------------------------------|
|------------------------------------------------------------------|
|
|------------------5----------------------------------------------7----|
|------------------5----------------------------------------------7----|
|------------------6----------------------------------------------8----|
|------------------5----------------------------------------------7----|
|7--9--7--7--7--9--7----7--9--7--7--7--9--7--9--9--11-9--9--9--11-9----|
|5--5--5--5--5--5--5----5--5--5--5--5--5--5--7--7--7--7--7--7--7--7----|
(SM..............)     (SM.......................................)

|17------------------------------19----------------------22B--22B--R--|
|---20---19---17~~~-----17--19B-----19p17----17-17-19-17--------------|
|-------------------18--------------------18--------------------------|
|---------------------------------------------------------------------|
|---------------------------------------------------------------------|
|---------------------------------------------------------------------|
|
|------------------7----------------------7-------------------------|
|------------------7----------------------7-------------------------|
|------------------8----------------------8-------------------------|
|------------------7----------------------7-------------------------|
|9--11-9--9--9--11-9----9--11-9--9--9--11-9----9--11-9--9--9--11----|
|7--7--7--7--7--7--7----7--7--7--7--7--7--7----7--7--7--7--7--7--0--|

 pick slide with feed back
|-----------------------------------------------------------------------|
|---!x**----------------------------------------------------------------|
|----x***---------------------------------------------------------------|
|-------**--------------------------------------------------------------|
|--------**-------------------------------------------------------------|
|-----------------------------------------------------------------------|
|!Microphone feedback from guitar pickup
|
|-----------------------------------------------------------------------|
|---------------------------7------5----7-------------------------------|
|---------------------------7------6----7-------------------------------|
|---------------------------7------7----7-------------------------------|
|---------------------------5------7----5-------------------------------|
|0--0--0--0--0--0--0--0--0---------5---------0--0--0--0--0--0--0--0--0--|
(PM.......................)                 (PM.......................)

|-----------------|
|-----------------|
|-----------------|
|-----------------|
|-----------------|
|-----------------|
|
|-----------------|
|7------5----7----|
|7------6----7----|
|7------7----7----|
|5------7----5----|
|-------5---------|


Refrain: Guitar 1
|--------------------------------------------------------------------|
|---------------------------7------5----7----------------------------|
|---------------------------7------6----7----------------------------|
|---------------------------7------7----7----------------------------|
|---------------------------5------7----5----------------------------|
|0--0--0--0--0--0--0--0--0---------5---------0--0--0--0--0--0--0--0--|
|(PM.......................)                (PM......................
|Guitar 2
|----------------------------------------------------------------------------|
|----------------------------------------------------------------------------|
|----------------------------------------------------------------------------|
|---------------------------x--9--x--9--x--9--x--9--9--9--x--9-9-9--9--9--9--|
|---------------------------x--7--x--7--x--7--x--7--7--7--x--7-7-7--7--7--7--|
|---------------------------x--0--x--0--x--0--x--0--0--0--x--0-0-0--0--0--0--|
                                   (SM...............................................


|----------------------------------------------------------------|
|---7------5----7-------------------------------7------5----7----|
|---7------6----7-------------------------------7------6----7----|
|---7------7----7-------------------------------7------7----7----|
|---5------7----5-------------------------------5------7----5----|
|0---------5---------0--0--0--0--0--0--0--0--0---------5---------|
|..)                (PM........................)
|
|----------------------------------------------------------------|
|----------------------------------------------------------------|
|----------------------------------------------------------------|
|9--7------7----7---9--9--x--9-9-9--9--9--9--9--7------7----7----|
|7--5------7----5---7--7--x--7-7-7--7--7--7--7--5------7----5----|
|0---------5--------0--0--x--0-0-0--0--0--0--0---------5---------|
..)                      (SM.........................)

|--------------------------------------------------------------------|
|---------------------------7------5----7----------------------------|
|---------------------------7------6----7----------------------------|
|---------------------------7------7----7----------------------------|
|---------------------------5------7----5----------------------------|
|0--0--0--0--0--0--0--0--0---------5---------0--0--0--0--0--0--0--0--|
|(PM......................)                 (PM......................
|
|---------------------------------------------------------------------|
|---------------------------------------------------------------------|
|---------------------------------------------------------------------|
|9--9--x--9-9-9--9--9--9--9--7-----7----7----9--9--x--9-9-9--9--9--9--|
|7--7--x--7-7-7--7--7--7--7--5-----7----5----7--7--x--7-7-7--7--7--7--|
|0--0--x--0-0-0--0--0--0--0--------5---------0--0--x--0-0-0--0--0--0--|
(SM.........................)               (SM.......................

|----------------------------------------------------------------|
|---7------5----7-------------------------------7------5----7----|
|---7------6----7-------------------------------7------6----7----|
|---7------7----7-------------------------------7------7----7----|
|---5------7----5-------------------------------5------7----5----|
|0---------5---------0--0--0--0--0--0--0--0--0---------5---------|
|..)                (PM.......................)
|
|----------------------------------------------------------------|
|----------------------------------------------------------------|
|----------------------------------------------------------------|
|9--7------7----7----x--9--x--9--x--9--9--------------------7----|
|7--5------7----5----x--7--x--7--x--7--7---------------7----5----|
|0---------5---------x--0--x--0--x--0--0--------0------5---------|
...)                (SM........................)

|--------------------------------------------------------------------|
|---------------------------7------5----7----------------------------|
|---------------------------7------6----7----------------------------|
|---------------------------7------7----7----------------------------|
|---------------------------5------7----5----------------------------|
|0--0--0--0--0--0--0--0--0---------5---------0--0--0--0--0--0--0--0--|
|(PM......................)                 (PM......................
|
|--------------------------------------------------------------------|
|----------------------------12--12--12------14--12^-----------------|
|9--9--9--9--9--7--7--14B----14B-14B-14BRp12-14--12^--------------12-|
|9--9--9--9--9--7--7----------------------------------14--12--14--0--|
|7--7--7--7--7--5--5-------------------------------------------------|
|0--0--0--0--0-------------------------------------------------------|


|----------------------------------------------------------------|
|---7------5----7-------------------------------7------5----7----|
|---7------6----7-------------------------------7------6----7----|
|---7------7----7-------------------------------7------7----7----|
|---5------7----5-------------------------------5------7----5----|
|0---------5---------0--0--0--0--0--0--0--0--0---------5---------|
|..)                (PM.......................)
|                                           even return
|-------------------------0--15B---------------------------------|
|-----20-----------20------------------------22B------R----------|
|19B------19BR-19B----19B----------------------------------------|
|----------------------------------------------------------------|
|----------------------------------------------------------------|
|----------------------------------------------------------------|

                                           Fade Out
|-----------------------------------------------------------------------|
|---------------------------7------5----7-------------------------------|
|---------------------------7------6----7-------------------------------|
|---------------------------7------7----7-------------------------------|
|---------------------------5------7----5-------------------------------|
|0--0--0--0--0--0--0--0--0---------5---------0--0--0--0--0--0--0--0--0--|
|(PM.......................)                (PM.......................)
|
|------17---------------------------------------------------------------|
|--20----------17--20hp17--------------------17~~~----------------------|
|----------19-------------19--------------------------------------------|
|-----------------------------------------------------------------------|
|-----------------------------------------------------------------------|
|-----------------------------------------------------------------------|

Enjoy.





Comments


Popular Led Zeppelin tabs & chords
Communication Breakdown 3 Bass Tabs
Hots On For Nowhere 1 Bass Tabs
Babe, I'm Gonna Leave You Chords
Communication Breakdown Chords
Living Loving Maid Chords
Tangerine Drum Tabs
Dazed And Confused Intro Tabs
Good Times Bad Times 3 Tabs
Kashmir 1 Tabs
The Ocean 4 Tabs


Song lyrics



↑ Back to top | Tablatures and chords are parodies/interpretations of the original songs. You may use it for private study, scholarship, research or language learning purposes only
© 2014 AZChords.com Contact us | Privacy policy | DMCA | Add/correct tabs | Request tabs | Top 50 tabs