» » »

Led Zeppelin, Communication Breakdown Tabs (ver.5)

Artists:  A B C D E F G H I J K L M N O P Q R S T U V W X Y Z # 

Communication Breakdown Tabs (ver.5)

Led Zeppelin Tabs
 Rating:
4/5 (4 votes)
Communication Breakdown lessons Tabs too difficult? Try these video lessons and learn fast
1
                Led Zeppelin

STANDARD TUNING:  E A D G B E

INTRO AND VERSE
E|---------------------------------------------------------|
B|---------------------------------------------------------|
G|---------------------7---7-------------------------------|
D|---------------------7-7-7-------------------------------|
A|---------------------5-7-5-------------------------------|
E|--0-0-0-0-0-0-0-0-0----5---------------------------------|
X4 For Intro
X8 For Verse

GHORUS
E|-----------------------5----------------------5----------|
B|-----------------------5----------------------5----------|
G|-----------------------6----------------------6----------|
D|-----------------------5----------------------5----------|
A|--7--7--9--7--7--7--9--7----7--9--7--7--7--9--7----------|
E|--5--5--5--5--5--5--5--5----5--5--5--5--5--5--5----------|

E|-----------------------5---------------------------------|
B|-----------------------5---------------------------------|
G|-----------------------6---------------------------------|
D|-----------------------5---------------------------------|
A|-----7--9--7--7--7--9--7----7--9--7--7--7--9--7----------|
E|-----5--5--5--5--5--5--5----5--5--5--5--5--5--5----------|

E|-----------------------7----------------------7----------|
B|-----------------------7----------------------7----------|
G|-----------------------8----------------------8----------|
D|-----------------------7----------------------7----------|
A|--9--9--11-9--9--9--11-9----9--11-9--9--9--11-9----------|
E|--7--7--7--7--7--7--7--7----7--7--7--7--7--7--7----------|

E|-----------------------7---------------------------------|
B|-----------------------7---------------------------------|
G|-----------------------8---------------------------------|
D|-----------------------7---LET RING----------------------|
A|-----9--11-9--9--9--11-9---------------------------------|
E|-----7--7--7--7--7--7--7---------------------------------|

Here's The Order:
1. Intro
2. Verse
3. Chorus
4. Main Riff 2X
5. Verse
6. Chorus
7. Solo (In E...Whatever U Want)
8. Chorus
9. Keep Playin Main Riff and Fade Out
            
Submit corrections

comments powered by Disqus
↑ Back to top | Led Zeppelin Tabs for Communication Breakdown. Lyrics for acoustic guitar and electric guitar. 1 Tablatures and chords are parodies/interpretations of the original songs. You may use it for private study, scholarship, research or language learning purposes only