» » »

Bring It Home Tabs (ver.1)

Artists:  A B C D E F G H I J K L M N O P Q R S T U V W X Y Z # 

Bring It Home Tabs (ver.1)

Led Zeppelin
Rating:
0/5 (0 votes)

Hard to play? Try these video lessons and learn fast.
                Ok. This is my first effort to Tab a song. It is not totally correct but I 
think
it's gonna help you.
As you'll see part #5 is surely not correct but not sounding awful...
Well......... I can say I'm proud of my work !?!?!?!?!?!?!?

-|----------------------------------------------------------------------------
-|----------------------------------------------------------------------------
-|----------------------------------------------------------------------------
-|----------------------------------------------------------------------------
-|-2---2-4---4-2---2---0-2-----2-4---4-2---2---0-2----------------------------
-|-0---0-0---0-0---0-3-----0---0-0---0-0---0-3-----0--------------------------
     part #1      play this sometimes

-|----------------------------------------------------------------------------
-|----------------------------------------------------------------------------
-|----------------------------------------------------------------------------
-|----------------------------------------------------------------------------
-|-7---7-9---9-7---7-9---9-7---7-9---9-7---7-9---7----------------------------
-|-5---5-5---5-5---5-5---5-5---5-5---5-5---5-5---5----------------------------
     part #2      and then again to #1

-|----------------------------------------------------------------------------
-|----------------------------------------------------------------------------
-|----------------------------------------------------------------------------
-|----------------------------------------------------------------------------
-|-2---2-4---4-2---2---0-2-----2-4---4-2---2---0-2----------------------------
-|-0---0-0---0-0---0-3-----0---0-0---0-0---0-3-----0--------------------------
     only once played  ( #1 )

-|----------------------------------------------------------------------------
-|----------------------------------------------------------------------------
-|----------------------------------------------------------------------------
-|----------------------------------------------------------------------------
-|-9---9-11--11-9---9-11--9---7---7-9---9-7---7-9---7-2-----------------------
-|-7---7-7---7--7---7-7---7---5---5-5---5-5---5-5---5-0-----------------------
     part #3       after this there's a small break  and then

-|-----------------------------------|----------------------------------------
-|-----------------10b12-10-8-10-8---|---------------10b12-10-8-10------------
-|---------7-9---------------------9-|--------7-9-----------------------------
-|-----7-9---------------------------|----7-9---------------------------------
-|-------------7---------------------|------------7---------------------------
-|-----------------------------------|----------------------------------------
    part #4        getting louder huh ?

-|----------------------------------------------------------------------------
-|----------------------------------------------------------------------------
-|----9---9-9--11---11-9-9-9-9------------------------------------------------
-|----9---9-9--11---11-9-9-9-9------------------------------------------------
-|----7---7-7--9----9--7-7-7-7------------------------------------------------
-|----------------------------------------------------------------------------
    part #5   this ain't the correct one but it doesn't sound so awful....

   parts #4 and #5 are played sometimes (4-5,4-5,4-5...) and...

-|----------------------------------------------------------------------------
-|----------------------------------------------------------------------------
-|----------------------------------------------------------------------------
-|----------------------------------------------------------------------------
-|-9---9-11--11-9---9--11--9-7---7-9---9-7---7-9---7-2------------------------
-|-7---7-7---7--7---7--7---7-5---5-5---5-5---5-5---5-0------------------------
    then it "brings it on home" to part #3  and...

-|-----4-----5-----6--------0-------------------------------------------------
-|-------0------------------7-------------------------------------------------
-|-2\4-----5---5-6---6------7-------------------------------------------------
-|--------------------------6-------------------------------------------------
-|---------------------2----7-------------------------------------------------
-|---------------------0------------------------------------------------------
finishes like this   (slowing down
            
Hard to play? Try these video lessons and learn fast. | Correct




comments powered by Disqus
↑ Back to top | Tablatures and chords are parodies/interpretations of the original songs. You may use it for private study, scholarship, research or language learning purposes only