>
 >
Black Dog Live Intro 1

Black Dog Live Intro 1 Guitar Tabs

Led Zeppelin - Black Dog Live Intro 1 chords, tabs, tablatures, lyrics

Guitar lessons | Add/correct | Request | Top 50 tabs Artists:  A B C D E F G H I J K L M N O P Q R S T U V W X Y Z 0-9

Black Dog Live Intro 1 Guitar Tabs – Led Zeppelin

CD, Sheet music, Poster

Do you like Black Dog Live Intro 1? Share with your friends now
Tabs
Sorry dont know the Chords part.


E---------------------------------------------------------------------|
B---------------------------------------------------------------------|
G------------------4b--2p1h2p1------------------------4b--2p1h2p1~----|
D-------0h2--------------------2------------0h2-----------------------|
A---0h2-------------------------------0h2-----------------------------|
E------------0-----------------------------------0--------------------|x2

E--------------------------------------------------------------------------|
B--------12h14-----15b--14p12h14p12------------12h14-----15b--14p12h14p12~-|
G--12h13-------13-------------------13~--12h13---------13------------------|
D--------------------------------------------------------------------------|
A--------------------------------------------------------------------------|
E--------------------------------------------------------------------------|

Hey,Hey,Mama, said the you move ganna make you sweat, gonna make you groove.

E------------------------------------------------------------------------|
B------------------------------------------------------------------------|
G---------------5-----7--9---5h7p5-------5-------------------------------|
D------5-6-7------7~----------------7-7-----7~--5-7-7--------------------|
A---7--------7----------------------------------------5-7~--3-5----7~----|
E------------------------------------------------------------------5~----|


Oh,Oh,Child, way you shake that thing gonna make you burn gonna make you sting.

E-----------------------------------------------------------------------|
B-----------------------------------------------------------------------|
G---------------5-----7--9--5h7p5-------5-------------------------------|
D-----5-6-7--------7~--------------7-7-----7~--5-7-7--------------------|
A---7--------7----------------------------------------5-7~-3-5----7~----|
E-----------------------------------------------------------------5~----|


Hey,Hey,Baby, when you walk that way watch your honey drip, can't keep away.


E--------------------------------------------------------------------|
B--------------------------------------------------------------------|
G-------------5-----7-9---5h7p5------5-------------------------------|
D-----5-6-7------7~--------------7-7----7~--5-7-7--------------------|
A---7-------7-------------------------------------5-7~--3-5----7~----|
E--------------------------------------------------------------5~----|


E--------------------------------------------------------------------|
B--------------------------------------------------------------------|
G--------------------------------------------------------------------|
D-------------5---------------5--------------5-------------------5-6-|
A-----5-6-7-----7~----5-6-7-----7~---5-6-7-----7~-----5-6-7-5-7------|
E---7-------7-------7-------7------7-------7--------7----------------|


E--------------------------------------------------------------------|
B--------------------------------------------------------------------|
G------5----7-9--5h7p5------5----------------------------------------|
D--7-----7--------------7-7---7~--5-7-7------------------------------|
A----7-----------------------------------5-7~---3-5------7~----------|
E--------------------------------------------------------5~----------|

ah yeah, ah yeah ah ah ah, ah yeah ah yeah ah ah ah





Comments


Popular Led Zeppelin tabs & chords
Bron Y Aur Stomp 2 Bass Tabs
Misty Moutain Hop Bass Tabs
The Ocean 4 Bass Tabs
The Ocean 6 Bass Tabs
Four Sticks 1 Drum Tabs
Royal Orleans Drum Tabs
Black Country Woman Tabs
Bring It Home 1 Tabs
Livin Lovin Maid Tabs
Over The Hills And Far Away 1 Tabs


Song lyrics



↑ Back to top | Tablatures and chords are parodies/interpretations of the original songs. You may use it for private study, scholarship, research or language learning purposes only
© 2014 AZChords.com Contact us | Privacy policy | DMCA | Add/correct tabs | Request tabs | Top 50 tabs