» » »

Led Zeppelin, Black Dog Tabs (ver.6)

Artists:  A B C D E F G H I J K L M N O P Q R S T U V W X Y Z # 

Black Dog Tabs (ver.6)

Led Zeppelin Tabs
 Rating:
4/5 (4 votes)
Black Dog lessons Tabs too difficult? Try these video lessons and learn fast
                (Live)

 Standard tuning
    This is how Jimmy plays it in the Song Remains the Same concert.

 e)---------------------5----------|
 b)--------------------------------|
 g)-----------2---2--4b6-      X 3-|
 d)-------2-4---4------------------|
 a)-3-3s4--------------------------|
 e)--------------------------------|

 e)----------------------|
 b)------3---------------|
 g)--5b7---5-4-2---4v----|
 d)--------------4-------|
 a)----------------------|
 e)----------------------|

 e)---------------------5----------|
 b)--------------------------------|
 g)-----------2---2--4b6-      X 3-|
 d)-------2-4---4------------------|
 a)-3-3s4--------------------------|
 e)--------------------------------|

 e)----------------------|
 b)------3---------------|
 g)--5b7---5-4-2---4v----|
 d)--------------4-------|
 a)----------------------|
 e)----------------------|

 e)----5--------8-10-8-10b12---10b12-8h10p8-10-8---12b15--12------------------|
 b)--5-5--8s10------------------------------------------------13-12-10h12p10--|
 g)---------------------------------------------------------------------------|
 d)---------------------------------------------------------------------------|
 a)---------------------------------------------------------------------------|
 e)---------------------------------------------------------------------------|

 e)-----------------------------------------------------------------------12-|
 b)-----10-12-10h12p10----10-12-10h12p10-----10-12-10h12p10------10-12b13----|
 g)--11----------------11-----------------11------------------11-------------|
 d)--------------------------------------------------------------------------|
 a)--------------------------------------------------------------------------|
 e)--------------------------------------------------------------------------|

 e)--------12--10----------------------------------------------------------|
 b)12b13----------13-12-10h12p10----10-12-10h12p10----10-12-10h12p10-------|
 g)------------------------------11----------------11----------------11----|
 d)------------------------------------------------------------------------|
 a)------------------------------------------------------------------------|
 e)------------------------------------------------------------------------|

 e)------------------8-11p8-10p8---8-11p8-10p8---8-11p8-10p8---8-11p8-10p8-|
 b)-10--------------------------10-------------10------------10------------|
 g)----12b14--12v----------------------------------------------------------|
 d)------------------------------------------------------------------------|
 a)------------------------------------------------------------------------|
 e)------------------------------------------------------------------------|

 e)----8---------------------------------------------------------------|
 b)-10--10p8-----------------------------------------------------------|
 g)-----------9-8-5-h7p5---5-----------5------5------5------5-------5--|
 d)----------------------7---7p5--5h6h7--5h6h7--5h6h7--5h6h7--5h6h7----|
 a)--------------------------------------------------------------------|
 e)--------------------------------------------------------------------|

 e)-------------------------------------------5s8---12---14--15-14-12h14p12-|
 b)-------55---------77------------------5-7--------------------------------|
 g)-------55---------77------------2-4s6------------------------------------|
 d)-7p5-------7p5--------------2h4------------------------------------------|
 a)-----7---------7------0-3h4----------------------------------------------|
 e)-------------------------------------------------------------------------|

 e)12-----12-----------------------------------------------------------------|
 b)--15b17--15b17-15v--13--15b17-15p13--13---15b17-15p13--13-----15b17-15p13-|
 g)----------------------14----------------14----------------14--------------|
 d)--------------------------------------------------------------------------|
 a)--------------------------------------------------------------------------|
 e)--------------------------------------------------------------------------|

 e)--------15---12------------------------------------15-15-15-------15-15-15-|
 b)-15b17----------15-12-15p12---12------------15b17-----------15b17----------|
 g)----------------------------14---14p12-------------------------------------|
 d)---------------------------------------14v---------------------------------|
 a)---------------------------------------------------------------------------|
 e)---------------------------------------------------------------------------|

 e)15-------15-------15-15-15---------15-15---------15-15---------15-15------|
 b)---15(17)---15b17-----------15(17)--------15(17)--------15(17)------------|
 g)--------------------------------------------------------------------------|
 d)--------------------------------------------------------------------------|
 a)--------------------------------------------------------------------------|
 e)--------------------------------------------------------------------------|

 e)------15------15------15---------------15--------------------17b19-17-15--|
 b)15b17---15b17v--15b17----15b17v--15b17----15b17-15-12----12---------------|
 g)------------------------------------------------------14------------------|
 d)--------------------------------------------------------------------------|
 a)--------------------------------------------------------------------------|
 e)--------------------------------------------------------------------------|

 e)----------------------------------------------------------------|
 b)-19-15--h19p15----19--15h19p15-----19-15h19p15-----19-15h19p15--|
 g)---------------17---------------17---------------17-------------|
 d)----------------------------------------------------------------|
 a)----------------------------------------------------------------|
 e)----------------------------------------------------------------|

 e)-------------------------------------------------------------------|
 b)---19--15h19p15-----19-15h19p15-----19-15h19p15------19--15--------|
 g)17----------------17--------------17-------------17----------------|
 d)-------------------------------------------------------------------|
 a)-------------------------------------------------------------------|
 e)-------------------------------------------------------------------|

 e)------------------5-----------------------------|
 b)----------------5---8p5-8p5---------------------|
 g)----------2-4s6--------------7-5-5h7p5---7-5v---|
 d)------2h4------------------------------7--------|
 a)0-3h4-------------------------------------------|
 e)------------------------------------------------|

 e)--------------------------5s8-12----15-14-12---------------------|
 b)----------------------5-7--------------------16-15-13------------|
 g)----------------2-4s6---------------------------------14b16r14vv-|
 d)------------2h4--------------------------------------------------|
 a)0-0-0-0-3h4------------------------------------------------------|
 e)-----------------------------------------------------------------|
            
Submit corrections

comments powered by Disqus
↑ Back to top | Led Zeppelin Tabs for Black Dog. Lyrics for acoustic guitar and electric guitar. Tablatures and chords are parodies/interpretations of the original songs. You may use it for private study, scholarship, research or language learning purposes only