» » »

Black Dog Bass tabs (ver.6)

Artists:  A B C D E F G H I J K L M N O P Q R S T U V W X Y Z # 

Black Dog Bass tabs (ver.6)

Led Zeppelin
Rating:
0/5 (0 votes)

Hard to play? Try these video lessons and learn fast.
                ~~~~~~~~~~~~
~~Digdoug~~~
~~Original~~
~~~~~~~~~~~~


Verse
G-----------5---|-7h9-5h7---5-5---|--------------------|
D---5-6-7-----7-|---------7-----7-|-5-7-7--------------|
A-7-------7-----|-----------------|-------5h7-3h5-0-0~-|
E---------------|-----------------|--------------------|

G-----------5---|-7h9-5h7---5-5---|--------------------|
D---5-6-7-----7-|---------7-----7-|-5-7-7--------------|
A-7-------7-----|-----------------|-------5h7-3h5-0-0~-|
E---------------|-----------------|--------------------|

G-----------5---|-7h9-5h7---5-5---|--------------------|
D---5-6-7-----7-|---------7-----7-|-5-7-7--------------|
A-7-------7-----|-----------------|-------5h7-3h5-0-0~-|
E---------------|-----------------|--------------------|

G---------------|---------------|---------------|-----------------|
D-----------5---|-----------5---|-----------5---|-----------------|
A---5-6-7-----7-|---5-6-7-----7-|---5-6-7-----7-|---5-6-7-5-7-5-7-|
E-7-------7-----|-7-------7-----|-7-------7-----|-7---------------|

G-----------5---|-7h9-5h7---5-5---|--------------------|
D---5-6-7-----7-|---------7-----7-|-5-7-7--------------|
A-7-------7-----|-----------------|-------5h7-3h5-0-0~-|
E---------------|-----------------|--------------------|

Chorus
G---------------|-----------------|
D---------------|-----------------|
A-----------3---|-----------3---0~|
E-5-5-5-5-5---5-|-5-5-5-5-5---5---|

Verse
G-----------5---|-7h9-5h7---5-5---|--------------------|
D---5-6-7-----7-|---------7-----7-|-5-7-7--------------|
A-7-------7-----|-----------------|-------5h7-3h5-0-0~-|
E---------------|-----------------|--------------------|

G-----------5---|-7h9-5h7---5-5---|--------------------|
D---5-6-7-----7-|---------7-----7-|-5-7-7--------------|
A-7-------7-----|-----------------|-------5h7-3h5-0-0~-|
E---------------|-----------------|--------------------|

Bridge (Hey Baby)
G-----------------------|-----------------------|
D-----------------------|-----------------------|
A-------------------7-5-|-------------------7-5-|
E-3-5-5-3-5-5-3-5-5-----|-3-5-5-3-5-5-3-5-5-----|

G-----------------------|--------------------------|
D-----------------------|--------------------------|
A-------------------7-5-|-------------------7-5-0~-|
E-3-5-5-3-5-5-3-5-5-----|-3-5-5-3-5-5-3-5-5--------|

Verse
G-----------5---|-7h9-5h7---5-5---|--------------------|
D---5-6-7-----7-|---------7-----7-|-5-7-7--------------|
A-7-------7-----|-----------------|-------5h7-3h5-0-0~-|
E---------------|-----------------|--------------------|

G-----------5---|-7h9-5h7---5-5---|--------------------|
D---5-6-7-----7-|---------7-----7-|-5-7-7--------------|
A-7-------7-----|-----------------|-------5h7-3h5-0-0~-|
E---------------|-----------------|--------------------|

G-----------5---|-7h9-5h7---5-5---|--------------------|
D---5-6-7-----7-|---------7-----7-|-5-7-7--------------|
A-7-------7-----|-----------------|-------5h7-3h5-0-0~-|
E---------------|-----------------|--------------------|

G---------------|---------------|---------------|-----------------|
D-----------5---|-----------5---|-----------5---|-----------------|
A---5-6-7-----7-|---5-6-7-----7-|---5-6-7-----7-|---5-6-7-5-7-5-7-|
E-7-------7-----|-7-------7-----|-7-------7-----|-7---------------|

G-----------5---|-7h9-5h7---5-5---|--------------------|
D---5-6-7-----7-|---------7-----7-|-5-7-7--------------|
A-7-------7-----|-----------------|-------5h7-3h5-0-0~-|
E---------------|-----------------|--------------------|

Chorus
G---------------|-----------------|
D---------------|-----------------|
A-----------3---|-----------3---0~|
E-5-5-5-5-5---5-|-5-5-5-5-5---5---|

Verse
G-----------5---|-7h9-5h7---5-5---|--------------------|
D---5-6-7-----7-|---------7-----7-|-5-7-7--------------|
A-7-------7-----|-----------------|-------5h7-3h5-0-0~-|
E---------------|-----------------|--------------------|

G-----------5---|-7h9-5h7---5-5---|--------------------|
D---5-6-7-----7-|---------7-----7-|-5-7-7--------------|
A-7-------7-----|-----------------|-------5h7-3h5-0-0~-|
E---------------|-----------------|--------------------|

Outro
G-----------------------|-----------------------|
D-----------------------|-----------------------|
A-------------------7-5-|-------------------7-5-|
E-3-5-5-3-5-5-3-5-5-----|-3-5-5-3-5-5-3-5-5-----|

Keeping playing this over and over till it eventually fades out

End- Enjoy
            
Hard to play? Try these video lessons and learn fast. | Correct




comments powered by Disqus
↑ Back to top | Tablatures and chords are parodies/interpretations of the original songs. You may use it for private study, scholarship, research or language learning purposes only