» » »

Black Dog Tabs (ver.1)

Artists:  A B C D E F G H I J K L M N O P Q R S T U V W X Y Z # 

Black Dog Tabs (ver.1)

Led Zeppelin
Rating:
0/5 (0 votes)

Hard to play? Try these video lessons and learn fast.
                Note: I'm working on the solo. When I'll know it, I'll Modify my tab :)
      But I'm sure that what I did is 99.9% correct.

b: Bend String
L.R.: Let Ring the note
x: palm mute

|------------------------------------------------------|      
|------------------5-----------------------------------|        
|-----------5b---7---575-----5-------------------2-----|     
|---5-6-7------7---------7-7---7-5-7-7-----------2-----|  (x3)     
|-7-------7----------------------------5-7-3-5-0-0-----|       
|------------------------------------------------------|   
                                                 L.R.

|----------------|      
|----------------|        
|----------------|     
|-----------5b---|  (x3)    
|---5-6-7------7-|       
|-7-------7------| 

|------------------------------------------------------------|      
|----------------------------5-------------------------------|        
|---------------------5b---7---575-----5-------------------2-|     
|-------------5-6-7------7---------7-7---7-5-7-7-----------2-|      
|---5-6-7-5-7-------7----------------------------5-7-3-5-0-0-|       
|-7----------------------------------------------------------| 
        
|---------------------------------------------------------------------------------|      
|---------------------------------------------------------------------------------|        
|---2-4b-2-4-2---2-4b-2-4-2---2--5-2-4b-2-------2-4b-2-------2-4b-2-------2--5-2--|
|---2------------2------------2--5-2-----4-2---2-----4-2---2-----4-2---2--5-2-----|
|-3-0----------3-0----------3-0--3-0---------3-0---------3-0---------3-0--3-0-----|
|---------------------------------------------------------------------------------|
                                                                          L.R.

|------------------------------------------------------|      
|------------------5-----------------------------------|        
|-----------5b---7---575-----5-------------------2-----|     
|---5-6-7------7---------7-7---7-5-7-7-----------2-----|  (x2)     
|-7-------7----------------------------5-7-3-5-0-0-----|       
|------------------------------------------------------|   
                                                 L.R.

|----------------------------3-3-|       |-------|      
|----------------------------3-2-|       |-------|        
|-2-2-2-0--2-2-5-2--2-2-2-0--0-3-|       |-2-----|     
|-2-2-2-0--2-2-5-2--2-2-2-0--0-0-| (x4)  |-2-----|        
|-0-0-0-0--0-0-3-0--0-0-0-0--2---|       |-0-----| 
|----------------------------3---|       |-------|
    x        x        x                    L.R.

|------------------------------------------------------|      
|------------------5-----------------------------------|        
|-----------5b---7---575-----5-------------------2-----|     
|---5-6-7------7---------7-7---7-5-7-7-----------2-----|  (x3)     
|-7-------7----------------------------5-7-3-5-0-0-----|       
|------------------------------------------------------|   
                                                 L.R.

|----------------|      
|----------------|        
|----------------|     
|-----------5b---|  (x3)    
|---5-6-7------7-|       
|-7-------7------| 

|------------------------------------------------------------|      
|----------------------------5-------------------------------|        
|---------------------5b---7---575-----5-------------------2-|     
|-------------5-6-7------7---------7-7---7-5-7-7-----------2-|      
|---5-6-7-5-7-------7----------------------------5-7-3-5-0-0-|       
|-7----------------------------------------------------------|

|---------------------------------------------------------------------------------|      
|---------------------------------------------------------------------------------|        
|---2-4b-2-4-2---2-4b-2-4-2---2--5-2-4b-2-------2-4b-2-------2-4b-2-------2--5-2--|
|---2------------2------------2--5-2-----4-2---2-----4-2---2-----4-2---2--5-2-----|
|-3-0----------3-0----------3-0--3-0---------3-0---------3-0---------3-0--3-0-----|
|---------------------------------------------------------------------------------|
                                                                          L.R.

|------------------------------------------------------|      
|------------------5-----------------------------------|        
|-----------5b---7---575-----5-------------------2-----|     
|---5-6-7------7---------7-7---7-5-7-7-----------2-----|  (x2)     
|-7-------7----------------------------5-7-3-5-0-0-----|       
|------------------------------------------------------|   
                                                 L.R.

|----------------------------3-3-|            
|----------------------------3-2-|               
|-2-2-2-0--2-2-5-2--2-2-2-0--0-3-|            
|-2-2-2-0--2-2-5-2--2-2-2-0--0-0-| (x13)          
|-0-0-0-0--0-0-3-0--0-0-0-0--2---|        
|----------------------------3---|       
    x        x        x
            
Hard to play? Try these video lessons and learn fast. | Correct




comments powered by Disqus
↑ Back to top | Tablatures and chords are parodies/interpretations of the original songs. You may use it for private study, scholarship, research or language learning purposes only