» » »

Led Zeppelin, Black Country Woman Tabs (ver.4)

Artists:  A B C D E F G H I J K L M N O P Q R S T U V W X Y Z # 

Black Country Woman Tabs (ver.4)

Led Zeppelin Tabs
 Rating:
4/5 (4 votes)
Black Country Woman lessons Tabs too difficult? Try these video lessons and learn fast
                BLACK COUNTRY WOMAN Guitar Tab
--------------------
                                                                                    

DGDGBD (low to high) Tuning

  INTRO/VERSE
D|--3-2-0-5---5---|--3-2-0-5-0-----|
B|0-0-0-0-0-0-0---|0-3-2-0-0-0---0-|
G|0-0-0-0-0-0-0---|0-0-0-0-0-0---0-|
D|0-0-0-0-0-0-0---|0-0-0-0-0---3-0-|
G|0-0-0-0-0---0---|0-0-0-0-----3-0-|
D|----------------|----------------|

Middle part (play different rhythms and variations with the following
chords, switching back to the above beginning chords at appropriate times):
D|--8-7-5-8---8---|--8-7-5-7-8-7-8-|
B|--8-7-5-8---8---|--8-7-5-7-8-7-8-|
G|5-5-5-5-5---5---|5-5-5-5-5-5-5-5-|
D|5-5-5-5-5---5---|5-5-5-5-5-5-5-5-|
G|5-5-5-5-5---5---|5-5-5-5-5-5-5-5-|
D|----------------|----------------|
  You didn't have to tell me that you love me so.....

D|----------------|--8-7-5-7-8-----|--3-2-0-5---5---|--3-2-0---------|
B|--1-1-1-1---1---|--8-7-5-7-8-3-0-|--0-0-0-0-0-0---|0-3-2-0-0-0---0-|
G|--0-0-0-0---0-3-|5-5-5-5-5-5-3-0-|--0-0-0-0-0-0---|0-0-0-0-0-0---0-|
D|--1-1-1-1---1-3-|5-5-5-5-5-5-3-0-|--0-0-0-0-0-0---|0-0-0-0-0-0-3-0-|
G|--2-2-2-2---2-3-|5-5-5-5-5-5-3-0-|--0-0-0-0---0---|0-0-0-0-0-0-3-0-|
D|--------------3-|5---------------|----------------|----------------|
  that's all right   I know your sisters too.....

  ENDING
D|--8-7-5-7-8-----|--0-0---0---0---|0-0-2-0-3-------|(3)-------------|
B|--8-7-5-7-8-3-0-|--0-3---2---1---|0-0-0-0-0-------|(0)-------------|
G|5-5-5-5-5-5-3-0-|--0-0---0---0---|0-0-0-0-0-------|(0)-------------|
D|5-5-5-5-5-5-3-0-|--0-3---2---1---|0-0-0-0-0-------|(0)-------------|
G|5-5-5-5-5-5-3-0-|--0-0---0---0---|0-0-0-0-0-------|(0)-------------|
D|5---------------|----------------|----------------|----------------|
                                                     What's the matter with you mama
            
Submit corrections

comments powered by Disqus
↑ Back to top | Led Zeppelin Tabs for Black Country Woman. Lyrics for acoustic guitar and electric guitar. Tablatures and chords are parodies/interpretations of the original songs. You may use it for private study, scholarship, research or language learning purposes only