>
 >
Baby Im Gonna Leave You

Baby Im Gonna Leave You Guitar Tabs

Led Zeppelin - Baby Im Gonna Leave You chords, tabs, tablatures, lyrics

Guitar lessons | Add/correct | Request | Top 50 tabs Artists:  A B C D E F G H I J K L M N O P Q R S T U V W X Y Z 0-9

Baby Im Gonna Leave You Guitar Tabs – Led Zeppelin

CD, Sheet music, Poster

Do you like Baby Im Gonna Leave You? Share with your friends now
Bass TabsBass Tabs v2Tabs
    -------------------------------------------------------

    LED ZEPPELIN - BABY, I'M GONNA LEAVE YOU (Anne Bredon)
                   Arranged by Page & Plant for their LED 
                   ZEPPELIN album. Released on January 12th 
                   1969. 

    -------------------------------------------------------







    Babe, baby, baby, Im gonna leave you
    I said baby, you know Im gonna leave you
    I'll leave you when the summertime
    Leave you when the summertime comes a-rollin'
    Leave you when the summer comes along

    Baby, baby, I dont wanna leave you
    I ain't jokin woman, I got to ramble
    Oh, yeah, baby, baby, I won't be there
    Really got to ramble
    I can hear it callin' me the way it used to do
    I can hear it callin' me back home

    Baby Oh Hey I'm gonna leave you Oh
    Baby you say I really got to leave you
    Oh I can hear it calling me
    And then you're doing here right calling me the way you do
    Oh oh

    I know, I know, I know I never never gonna leave you, baby
    But I got to go away from this place 
    Ive got to quit you yeah
    Ooh, baby, baby, baby ...
    Baby, ooh don't you hear it callin? Oh 

    Oh woman,  a woman, I know, 
    I know it's good to have you back again
    And I know that one day baby, it's gonna really grow, yes it is
    We gonna go walkin' through the park every day
    What I say, every day Oh

    My  my, bye bye, my I say
    I'm gonna leave you, go away Oh

    Baby, baby, it is really really growin' 
    You made me happy every single day
    But now I've got to go away Oh oh
    Baby, baby, baby, baby

    That's when it's callin' me I said
    That's when it's callin' me back home





                           
  e|------- ----0-- ------- -------|------- ------- ------- -------|
  B|--------1-------------------1--|------------3---------------1--|
  G|------2-----------------2------|--------0---------------0------|
  D|----2---------------2----------|----2---------------2----------|
  A|0---------------0--------------|-------------------------------|
  E|-------------------------------|3---------------3--------------|


  e|------- ------- ------- -------|------- ------- ------- -------|
  B|------------3---------------1--|------------1---------------0--|
  G|--------2---------------2------|--------2---------------1------|
  D|----0---------------0----------|----3---------------2----------|
  A|-------------------------------|-------------------------------|
  E|2---------------2--------------|1---------------0--------------|




  e|------- ----3-- ------- ----0--|------- ----3-- ------- ----0--|
  B|-------------------------------|-------------------------------|
  G|--------2---------------2------|--------0---------------0------|
  D|----2---------------2----------|----2---------------2----------|
  A|0---------------0--------------|-------------------------------|
  E|-------------------------------|3---------------3--------------|


  e|------- ------- ------- -------|------- ------- ------- -------|
  B|------------3---------------1--|------------1---------------0--|
  G|--------2---------------2------|--------2---------------1------|
  D|----0---------------0----------|----3---------------2----------|
  A|-------------------------------|-------------------------------|
  E|0H2-------------2--------------|1---------------0--------------|



    00:14

  e|------- ----3-- ------- ----0--|------- ------- ------- -------|
  B|-------------------------------|------------3---------------1--|
  G|--------2---------------2------|--------0---------------0------|
  D|----2---------------2----------|----2---------------2----------|
  A|0---------------0--------------|-------------------------------|
  E|-------------------------------|3---------------3--------------|
    Baby

  e|------- ------- ------- -------|------- ------- ------- -------|
  B|------------3---------------1--|------------1---------------0--|
  G|--------2---------------2------|--------2---------------1------|
  D|----0---------------0----------|----3---------------2----------|
  A|-------------------------------|-------------------------------|
  E|2---------------2--------------|1---------------0--------------|
                   baby            baby                       I'm 
                                                                  gonna


  e|------- ----3-- ------- ----0--|------- ------- ------- -------|
  B|-------------------------------|------------3---------------1--|
  G|--------2---------------2------|--------0---------------0------|
  D|----2---------------2----------|----2---------------2----------|
  A|0---------------0--------------|-------------------------------|
  E|-------------------------------|3---------------3--------------|
          leave         you

  e|------- ------- ------- -------|------- ------- ------- -------|
  B|------------3---------------1--|------------1---------------0--|
  G|--------2---------------2------|--------2---------------1------|
  D|----0---------------0----------|----3---------------2----------|
  A|-------------------------------|-------------------------------|
  E|2---------------2--------------|1---------------0--------------|
                                                        I       said


    00:29

  e|------- ----3-- ------- ----0--|------- ------- ------- -------|
  B|-------------------------------|------------3---------------1--|
  G|--------2---------------2------|--------0---------------0------|
  D|----2---------------2----------|----2---------------2----------|
  A|0---------------0--------------|-------------------------------|
  E|-------------------------------|3---------------3--------------|
    baby

  e|------- ------- ------- -------|------- ------- ------- -------|
  B|------------3---------------1--|------------1---------------0--|
  G|--------2---------------2------|--------2---------------1------|
  D|----0---------------0----------|----3---------------2----------|
  A|-------------------------------|-------------------------------|
  E|2---------------2--------------|1---------------0--------------|
                                  you   know                I'm   gonna



  e|------- ----3-- ------- ----0--|------- ----3-- ------- ----0--|
  B|------------1---------------1--|-------------------------------|
  G|--------2---------------2------|--------0---------------0------|
  D|----2---------------2----------|----2---------------2----------|
  A|0---------------0--------------|-------------------------------|
  E|-------------------------------|3---------------3--------------|
          leave         you

  e|------- ------- ------- -------|------- ------- ------- ----0--|
  B|------------3---------------1--|------------1------------------|
  G|--------2---------------2------|--------2--------------(1)-----|
  D|----0---------------0----------|----3---------------2----------|
  A|-------------------------------|-------------------------------|
  E|2---------------2--------------|1---------------0--------------|
                                                        I'll


    00:43

  e|------- ------- ------- -------|------- ------- ------- -------|
  B|------------3---------------1--|------------3---------------0--|
  G|--------2---------------2------|--------1---------------1------|
  D|----3---------------3----------|----2---------------2----------|
  A|-------------------------------|-------------------------------|
  E|1---------------1--------------|0---------------0--------------|
    leave you   when    the   summertime

  e|------- ------- ------- -------|------- ------- ------- -------|
  B|------------3---------------1--|------------3---------------0--|
  G|--------2---------------2------|--------1---------------1------|
  D|----3---------------3----------|----2---------------2----------|
  A|-------------------------------|-------------------------------|
  E|1---------------1--------------|0---------------0--------------|
                    leave you   when   the  summer        comes   a



  e|------- ----0-- ------- ----0--|------- ----3-- ------- ----0--|
  B|-------------------------------|-------------------------------|
  G|--------2---------------2------|--------0---------------0------|
  D|----2---------------2----------|----2---------------2----------|
  A|0---------------0--------------|-------------------------------|
  E|-------------------------------|3---------------3--------------|
    rollin'

  e|------- ------- ------- -------|------- ------- ------- ----0--|
  B|------------1---------------1--|------------1------------------|
  G|--------2---------------2------|--------2---------------1------|
  D|----0---------------0----------|----3---------------2----------|
  A|-------------------------------|-------------------------------|
  E|2---------------2--------------|1---------------0--------------|
                leave   you when    summer              comes   along
                                the


    00:58

  e|0---0-0 0---0-- ----0-- ----0--|------- ------- ------- -------|
  B|1---1-1-1---1-------8-------6--|-------------------------------|
  G|2---2-2-2---2-------9-------7--|----7---7---7---7---7---7------|
  D|2---2-2-2---2-------9-------7--|----7---7---7---7---7---7------|
  A|0---0-0-0---0-------0-------0--|----0---0---0---0---0---0------|
  E|-------------------------------|-------------------------------| X 4



    01:12
    Baby, baby, I dont wanna leave you
    I ain't jokin woman, I got to ramble
    Oh, yeah, baby, baby, I won't be there
    Really got to ramble
    I can hear it callin' me the way it used to do
    I can hear it callin' me back home


    02:08

  e|------- ------- ------- -------|------- ------- ------- -------|
  B|------------5---------------8--|------------8---------------6--|
  G|--------4---------------9------|--------7---------------7------|
  D|----2---------------7----------|----7---------------7----------|
  A|0---------------0--------------|0---------------0--------------|
  E|-------------------------------|-------------------------------| X 4



    02:22

  e|0---0-- 0---0-- 0------ 0------|3---3-- 3---3-- 3------ 3------|
  B|1---1---1---1---1-------1------|1---1---1---1---1-------1------|
  G|2---2---2---2---2-------2------|0---0---0---0---0-------0------|
  D|2---2---2---2---2-------2------|2---2---2---2---2-------2------|
  A|0---0---0---0---0-------0------|x---x---x---x---x-------x------|
  E|-------------------------------|3---3---3---3---3-------3------|
    Baby                                        Oh


  e|----2-- 2---2-- 2------ 2------|0---0-- 0---0-- 0------ 0------|
  B|----3---3---3---3-------3------|0---0---0---0---0-------0------|
  G|----2---2---2---2-------2------|2---2---2---2---1-------1------|
  D|----0---0---0---0-------0------|3---3---3---3---2-------2------|
  A|----x---x---x---x-------x------|3---3---3---3---2-------2------|
  E|----2---2---2---2-------2------|1---1---1---1---0-------0------| ...
                            Hey                         I'm gonna


    leave   you
    Baby Oh Hey I'm gonna leave you Oh
    Baby you say I really got to leave you Oh


    02:51
       I can hear it calling me
    And then you're doing here right calling me the way you do
    Oh oh


    03:12

  e|------- ----0-- ------- -------|------- ------- ------- -------|
  B|--------1-------------------1--|------------3---------------1--|
  G|------2-----------------2------|--------0---------------0------|
  D|----2---------------2----------|----2---------------2----------|
  A|0---------------0--------------|-------------------------------|
  E|-------------------------------|3---------------3--------------|



  e|------- ------- ------- -------|------- ------- ------- -------|
  B|------------3---------------1--|------------1---------------0--|
  G|--------2---------------2------|--------2---------------1------|
  D|----0---------------0----------|----3---------------2----------|
  A|-------------------------------|-------------------------------|
  E|2---------------2--------------|1---------------0--------------| ...

  e|------- ------- ------- -------|------- -----HP ------- -------|
  B|--------------------5-------6--|7---6-------565-----5----------|
  G|-------------------------------|----------------7-----------7--|
  D|-------------------------------|-------------------------------|
  A|-------------------------------|-------------------------------|
  E|-------------------------------|-------------------------------|



  e|------- ------- ------- -------|------- ------- ------- -------|
  B|-------------------------------|-------------------------------|
  G|5H7P5\4H5----------------------|--------5----------------------|
  D|----------------7--------------|----7-----------------------7--|
  A|-------------------------------|-------------------------------|
  E|-------------------------------|-------------------------------|



  e|------- ------- ------- -------|------- ------- ------- -------|
  B|------------5------------------|-------------------------------|
  G|4---5---7---------7P5\4-5P4P2--|4P2P0--------------------------|
  D|-------------------------------|--------3P2P0-2P0--0-----------|
  A|-------------------------------|------------------3-3-P-1H3P1--|
  E|-------------------------------|-------------------------------|
   
    03:26

  e|------- ------- ------- -------|------- ------- ------- -------|
  B|-------------------------------|-------------------------------|
  G|-------------------------------|-------------------------------|
  D|-------------------------------|-------------------------------|
  A|0------------------------------|-------------------------------|
  E|-------------------------------|-------------------------------|
            I   know                        I   know


    I know I never never never never nevr gonna leave you, baby
    But I got to go away from this place 
    
   
    Baby, ooh don't you hear it callin? Oh 


    03:40

  e|------- ----3-- ------- ----1--|------- ----0-- ------- ----1--|
  B|-------------------------------|-------------------------------|
  G|--------2---------------2------|--------0---------------0------|
  D|----2---------------2----------|----2---------------2----------|
  A|0---------------0--------------|-------------------------------|
  E|-------------------------------|3---------------3--------------|
                                                        I       gotta



  e|------- ----0-- ------- -------|------- ----0-- ------- -------|
  B|----------------------------3--|--------------------0-------0--|
  G|--------2---------------2------|--------2---------------1------|
  D|----0---------------0----------|----3--------------------------|
  A|-------------------------------|-------------------------------|
  E|2---------------2--------------|1---------------0--------------|
    quit        yeah                            Aaaaaaaaahhh!
        you

    03:46

  e|------- ------- ------- -------|------- ------- ------- -------|
  B|------------1---------------1--|------------1---------------1--|
  G|--------2---------------2------|--------0---------------0------|
  D|----2---------------2----------|----2---------------2----------|
  A|0---------------0--------------|-------------------------------|
  E|-------------------------------|3---------------3--------------|
    Baby                            baby



  e|------- ----0-- ------- -------|------- ------- ------- -------|
  B|------------1---------------1--|------------1---------------0--|
  G|--------2---------------2------|--------2---------------1------|
  D|----0---------------0----------|----3---------------2----------|
  A|-------------------------------|-------------------------------|
  E|2---------------2--------------|1---------------0--------------|
    Baby                            baby


    03:54
    Baby, ooh don't you hear it callin? Oh 
    Oh woman,  a woman, I know, 
    I know it's good to have you back again
    And I know that one day baby, it's gonna really grow, yes it is
    We gonna go walkin' through the park every day
    What I say, every day Oh

    My  my, bye bye, my I say
    I'm gonna leave you,


    04:50
                                      Rake
  e|------- ------- ------- -------|------7 10--8-- ----7-8 7----7-|
  B|-------------------------------|-----8--------------------10---|
  G|-------------------------------|----9--------------------------|
  D|-------------------------------|--10---------------------------|
  A|-------------------------------|-------------------------------|
  E|-------------------------------|-------------------------------|
    Go      away


  e|------- ------- ------- -------|------- ------- ------- -------|
  B|10-8P7--7----------------------|-------------------------------|
  G|------9------------------------|---/7-------5---4---5-----4----|
  D|-------------------------------|-----------------------------7-|
  A|-------------------------------|-------------------------------|
  E|-------------------------------|-------------------------------|



  e|------- ------- ------- -------|------- ------- ------- -------|
  B|-------------------------------|-------------------------------|
  G|4------------------------------|------------7B9-----7B9-----9P7|
  D|-------------------------------|-------------------------------|
  A|----7--------------------------|-------------------------------|
  E|-------------------------------|-------------------------------|



  e|------- ------- ------- -------|------- ------- ------- -------|
  B|-------------------------------|-------------------------------|
  G|7---------------------------7B9|8---7-------7P5-4---5-------7--|
  D|-------------------------------|-------------------------------|
  A|-------------------------------|-------------------------------|
  E|-------------------------------|-------------------------------|



  e|------- ------- ------- -------|------- ------- ------- -------|
  B|-------------------------------|-------------------------------|
  G|5------------------------------|--------------------0----------|
  D|---7---------------------------|------------0---1/2---------1/2|
  A|------7------------------------|----0---2H3--------------------|
  E|-------------------------------|-------------------------------|



  e|------- ------- ------- -------|------- ------- ------- -------|
  B|-------------------------------|-------------------------------|
  G|0------------------------------|------------0-----------0------|
  D|----1/2------------------------|----0---1/2---------1/2-----2P0|
  A|-------------------------------|-------------------------------|
  E|-------------------------------|-------------------------------|



  e|------- ------- ------- -------|------7 10----7 10----7 10----7|
  B|-------------------------------|-----8-------8-------8-------8-|
  G|-------------------------------|----9-------9-------9-------9--|
  D|---0---------------------------|-------------------------------|
  A|3-----3-0----------------------|-------------------------------|
  E|-------------------------------|-------------------------------|



  e|10----7 10----7 10----7 10----7|10--8-- 7--8--7 ---7--- -------|
  B|-----8-------8-------8-------8-|----------------10---10-8--7--8/
  G|----9-------9-------9-------9--|-------------------------------|
  D|-------------------------------|-------------------------------|
  A|-------------------------------|-------------------------------|
  E|-------------------------------|-------------------------------|



  e|------- ------- ------- -------|------- ------- ------- -------|
  B|----10-\-----------------------|--------------------10------10-|
  G|-------------------------------|-------------------------------|
  D|-------------------------------|-------------------------------|
  A|-------------------------------|-------------------------------|
  E|-------------------------------|-------------------------------|



  e|------- ------- ------- -------|------- ------- ------- -------|
  B|10-\---------------------------|-------------------------------|
  G|-------------------------------|-------------------------------|
  D|-------------------------------|-------------------------------|
  A|-------------------------------|-------------------------------|
  E|-------------------------------|-------------------------------|
                        But now                I    got to  go  away


    05:25
    Oh oh
    Baby, baby, baby, baby


    05:54
   (.                             
  e|1------ ------- ------- -------|0------ ------- ------- -------|
  B|1------------------------------|-3-----------------------------|
  G|2------------------------------|--1----------------------------|
  D|3------------------------------|---2---------------------------|
  A|3------------------------------|----2--------------------------|
  E|1------------------------------|-----0-------------------------|
                That's      when    callin'     me
                                it's

  e|1------ ------- ------- -------|------- ------- ------- -------|
  B|1------------------------------|-----HP------------------------|
  G|2------------------------------|4---242-4--242424---242-4------|
  D|3------------------------------|2------------------------------|
  A|3------------------------------|2------------------------------|
  E|1------------------------------|0------------------------------|
        I said  that's     when    callin'     me               back
                                it's


    Ritardando
  e|5------ ----5-- 5---5-- 5---5--|5---5-- 5---5-- ------- -------|
  B|5-------5---5---4---4---4---4--|3---3---3---3---3---3---3---3--|
  G|----2---2---2---2---2---2---2--|2---2---2---2---2---2---2---2--|
  D|-------------------------------|-------------------------------|
  A|4-------4---4---3-------3---3--|2-------2---2---1-------1---1--|
  E|-------------------------------|-------------------------------|

  e|------- ----5-- ------- ----5--|------- ----5-- ------- ----5--|
  B|--------5---------------4------|--------3---------------3------|
  G|----2---------------2----------|----2---------------2----------|
  D|-------------------------------|-------------------------------|
  A|-------------------------------|-------------------------------|
  E|-------------------------------|-------------------------------|
    home
                              
                                           (.

  e|------- ------0 ------- ------0|------- 0------ ------- -------|
  B|----1P0-----1-------1P0-----1--|----1P0-0----------------------|
  G|--2-------2-------2-------2----|--2-----2----------------------|
  D|-------------------------------|--------2----------------------|
  A|0-------0-------0-------0------|0-------0----------------------|
  E|-------------------------------|-------------------------------|

  e|------- ------- ------- -------|------- 5------ ------- -------|
  B|-------------------------------|-------------------------------|
  G|-------------------------------|-------------------------------|
  D|-------------------------------|-------------------------------|
  A|-------------------------------|-------------------------------|
  E|-------------------------------|-------------------------------|






        B  Bend
        R  Release
        /  Slide up
        \  Slide down
        H  Hammer-on
        P  Pull-off
        ~  Vibrato
        +  Harmonic
        x  Mute note
        .  Play note like a dot in standard notation
        ^  Ties two notes together
        (. Pause





Comments


Popular Led Zeppelin tabs & chords
All My Love 1 Bass Tabs
Communication Breakdown Bass Tabs
Communication Breakdown 3 Bass Tabs
Houses Of The Holy Bass Tabs
Kashmir Bass Tabs
The Crunge 3 Bass Tabs
Tangerine 1 Chords
Over The Hills And Far Away Live Intro Tabs
The Song Remains The Same 1 Tabs
Hey Hey What Can I Do Ukulele


Song lyrics



↑ Back to top | Tablatures and chords are parodies/interpretations of the original songs. You may use it for private study, scholarship, research or language learning purposes only
© 2014 AZChords.com Contact us | Privacy policy | DMCA | Add/correct tabs | Request tabs | Top 50 tabs