>
 >
Achilles Last Stand 7

Achilles Last Stand 7 Guitar Tabs

Led Zeppelin - Achilles Last Stand 7 chords, tabs, tablatures, lyrics

Guitar lessons | Add/correct | Request | Top 50 tabs Artists:  A B C D E F G H I J K L M N O P Q R S T U V W X Y Z 0-9

Achilles Last Stand 7 Guitar Tabs – Led Zeppelin

CD, Sheet music, Poster

Do you like Achilles Last Stand 7? Share with your friends now
Bass TabsDrum TabsTabsTabs v2Tabs v3Tabs v4Tabs v5Tabs v6Tabs v7
Led Zeppelin





e:----------7---------------------------------------------------5----|
B:--------------7--5--5~~----8b10r8--------------5--5~-------8-------|
G:-------7-----------------------------7b9r7-----5--5~----5-(5)------|
D:--7s9------------------------------------------5--5~---------------|
A:-------------------------------------------------------------------|
E:-------------------------------------------------------------------|

e:--3h5p3----3~--------3------3h5p3-------3-----5~---------------7---|
B:--------5---------------------------5------5-(5)~------------------|
G:--------4--4~-----4----4------------5------5-(5)~-----------7------|
D:--------------------------------------------------------7s9--------|
A:-------------------------------------------------------------------|
E:-------------------------------------------------------------------|

e:-------------------------------------------10b12r10---------12.-14.|
B:--7--5--5~----7-8-10--8h10p8--7--8--7--8----------------12.--------|
G:-------------------------------------------------------------------|
D:-------------------------------------------------------------------|
A:-------------------------------------------------------------------|
E:-------------------------------------------------------------------|

e:---14b15r14p12--14b15r14p12---12--14--14b15r14p12---15b17r15-------|
B:-------------------------------------------------------------------|
G:-------------------------------------------------------------------|
D:-------------------------------------------------------------------|
A:-------------------------------------------------------------------|
E:-------------------------------------------------------------------|

e:-------------------------------------------------------------------|
B:--13--13~~----12--13----12-----------------------------------------|
G:---------------------14------12------------------12--14------------|
D:---------------------------------14--14~~~----14-------------------|
A:-------------------------------------------------------------------|
E:-------------------------------------------------------------------|

e:-------------------------------------------------------------------|
B:---------------------------------------------12-13--15p13p12-13p12-|
G:--14b16r14b16r14p12-------------------12--14-----------------------|
D:----------------------14--14~~----14-------------------------------|
A:-------------------------------------------------------------------|
E:-------------------------------------------------------------------|

e:----------------------------------------12-14-15.-15p14p12---------|
B:----12-----12h13p12----12-----12-13-15-----------------------------|
G:-14----14-----------14---------------------------------------------|
D:-------------------------------------------------------------------|
A:-------------------------------------------------------------------|
E:-------------------------------------------------------------------|

e:-14~~~~p12-----12-------12-----------------------------------------|
B:------------15----15p12-13--12-----12------------------------------|
G:--------------------------------14----14-12----14-----12h14p12-----|
D:--------------------------------------------14----14---------------|
A:-------------------------------------------------------------------|
E:-------------------------------------------------------------------|

e:-----------------------------------15------15------17b19-----------|
B:--------------------------------15----17.-----17-------------------|
G:----------12--------------14s16------------------------------------|
D:--14--14-----------------------------------------------------------|
A:-------------------------------------------------------------------|
E:-------------------------------------------------------------------|

e:-x--17.--x----12--12~~~~---15b17r15~----15p14p12h14~~---12h14p12~--|
B:-------------------------------------------------------------------|
G:-------------------------------------------------------------------|
D:-------------------------------------------------------------------|
A:-------------------------------------------------------------------|
E:-------------------------------------------------------------------|

e:-12h14p12---------------------------------------------------12-----|
B:-----------15b17-----15-13----13--12-12-12~~~~--------12-15--------|
G:---------------------------14----------------------12--------------|
D:-------------------------------------------------------------------|
A:-------------------------------------------------------------------|
E:-------------------------------------------------------------------|

e:-14--15p14p12--14~---12-14-15-17-19-20b22~~~-----20.--19.--17------|
B:-------------------------------------------------------------------|
G:-------------------------------------------------------------------|
D:-------------------------------------------------------------------|
A:-------------------------------------------------------------------|
E:-------------------------------------------------------------------|

e:-19~~~--x------17b18-------17--15--17--17b19~-------17b19----17----|
B:------------0.-----------------------------------------------------|
G:------------------------0.-----------------------0-----------------|
D:-------------------------------------------------------------------|
A:-------------------------------------------------------------------|
E:-------------------------------------------------------------------|

e:--15---17b19----17--15---14~~~~~----14h15p14p12--14~~---12--14-15--|
B:-------------------------------------------------------------------|
G:-------------------------------------------------------------------|
D:-------------------------------------------------------------------|
A:-------------------------------------------------------------------|
E:-------------------------------------------------------------------|

e:--17p15~~---15--15~~----12--15s14~---------------------------------|
B:-----------------------------------------13s12~--------------------|
G:-------------------------------------14-------------14--12.--------|
D:--------------------------------------------------------------14---|
A:-------------------------------------------------------------------|
E:-------------------------------------------------------------------|

e:-------------------------------------------------------------------|
B:--------------------------------------------12---------------------|
G:--12-----12~~--------12~~~~--------------12------------------------|
D:-----14----------------------------12h14---------------------------|
A:-------------------------------------------------------------------|
E:-------------------------------------------------------------------|

e:--17b19r17----15~--------------------------------------------------|
B:-------------------17~--15.----------------------------------------|
G:-----------------------------16--14---14b16r14----12---------------|
D:------------------------------------------------------14--12.------|
A:-------------------------------------------------------------------|
E:-------------------------------------------------------------------|

e:-------------------------------------------------------------------|
B:--------------17b19----17--17~~~-----------------------------------|
G:-------------------------------------------------------------------|
D:--9----12----------------------------------------------------------|
A:----10-------------------------------------------------------------|
E:-------------------------------------------------------------------|

 last part of solo:  17b19    17  17~~~





Comments


Popular Led Zeppelin tabs & chords
Dyer Maker 3 Bass Tabs
Misty Mountain Hop 2 Bass Tabs
Hots On For Nowhere Drum Tabs
Thank You Drum Tabs
Bron Yr Aur Stomp Tabs
Misty Mountain Hop Tabs
Moby Dick 5 Tabs
Ramble On Tabs
The Wanton Song 1 Tabs
The Battle Of Evermore Ukulele


Song lyrics



↑ Back to top | Tablatures and chords are parodies/interpretations of the original songs. You may use it for private study, scholarship, research or language learning purposes only
© 2014 AZChords.com Contact us | Privacy policy | DMCA | Add/correct tabs | Request tabs | Top 50 tabs