» » »

Lecrae, Just Like You Tabs (ver.1)

Artists:  A B C D E F G H I J K L M N O P Q R S T U V W X Y Z # 

Just Like You Tabs (ver.1)

Lecrae Tabs
Rating:
0/5 (0 votes)
Hard to play? Try these video lessons and learn fast.
                -------------------------------------------------------------------------------
-------------------------------------------------------------------------------
Tuning: Standard
This is the basic structure for the song.  The guitar on the track does some extra 
things here and there, but hopefully this can give you a good starting point.  If you can 
figure out some other parts leave a comment and I’ll correct it.  Thanks! 116!!

e|---------------------------------------------------------------------------|
B|---------------------------------------------------------------------------|
G|-----5-------5----------5------5-------------------------------------------|
D|---5--5----5--5-------5--5----5--5---------6-------6----------6-------6----|
A|-3-------3-----3----3-------3-----3------6--6----6--6-------6--6----6--6---|
E|---------------------------------------4-------4-----4----4-------4-----4--|

e|---------------------------------------------------------------------------|
B|---------------------------------------------------------------------------|
G|-------------------------------------------5-------5----------5--5/7-------|
D|-----3-------3----------5-------5--------5--5----5--5-------5--5-----------|
A|---3--3----3--3-------5--5----5--5-----3-------3-----3----3------3/5-------|
E|-1-------1-----1----3-------3-----3----------------------------------------|

| /   slide up
| \   slide down
| h   hammer-on
| p   pull-off
| ~   vibrato
| +   harmonic
| x   Mute note
| b   Bend
| pb  Pre-bend
| br  Bend release
| pbr Pre-bend release
| brb Bend release bend

************************************
            

comments powered by Disqus
↑ Back to top | Lecrae Tabs for Just Like You. Lyrics for acoustic guitar and electric guitar. Tablatures and chords are parodies/interpretations of the original songs. You may use it for private study, scholarship, research or language learning purposes only