>
 >
Wedding Dress

Wedding Dress Guitar Tabs

Le Chat Noir - Wedding Dress chords, tabs, tablatures, lyrics

Guitar lessons | Add/correct | Request | Top 50 tabs Artists:  A B C D E F G H I J K L M N O P Q R S T U V W X Y Z 0-9

Wedding Dress Guitar Tabs – Le Chat Noir

CD, Sheet music, Poster

Do you like Wedding Dress? Share with your friends now
Tabs
Le Chat Noir - Wedding Dress 



e|--------------|      |----------------------------------------------------------|
B|--------------|      |----------------------------------------------------------|
G|--7777-8-777--|  x3  |----------7777-10--777-7777-10--777-7777-10--770----------|
D|--7777-8-777--|      |-55-0-333-7777-10--777-7777-10--777-7777-10--770-55-0-333-|
A|--------------|      |-55-0-333--------------------------------------0-55-0-333-|
D|--------------|      |-55-0-333----------------------------------------55-0-333-|


e|-------------|    |----------||        |-------|
B|-------------|    |----------||o       |-------|
G|-7777-10-777-|    |----------||        |-------|
D|-7777-10-777-| x3 |-55-0-333-||    x2  |-333-0-|
A|-5555-8--555-|    |-55-0-333-||o       |-333-0-|
D|-------------|    |-55-0-333-||        |-333-0-|


 I hear you slamming the door...

e|--------------|
B|--------------|
G|--------------|
D|-55-0-3-333-0-|
A|-55-0-3-333-0-|
D|-55-0-3-333-0-|

 
  You're dripping blood on the floor...


e|--------------|
B|--------------|
G|--------------|
D|-55-0-3-333-0-|
A|-55-0-3-333-0-|
D|-55-0-3-333-0-|


Oh, it comes, it comes  Rising inside of you  It comes, it's coming

e|--------------|      |-------------------------------------------------------||
B|--------------|      |-------------------------------------------------------||o
G|--7777-8-777--|  x3  |----------7777-8--777-7777-8--777-7777-8--770----------||
D|--7777-8-777--|      |-55-0-333-7777-8--777-7777-8--777-7777-8--770-55-0-333-||   x2
A|--------------|      |-55-0-333-----------------------------------0-55-0-333-||o
D|--------------|      |-55-0-333-------------------------------------55-0-333-||


Well, your wedding dress is white as snow But your broken heart's blacker than coal, yeah
I can't believe you killed him on your wedding day


e|-------------------------------|
B|-------------------------------|
G|-------------------------------|
D|-7777777-1010101010-11111111/4-|
A|-7777777-1010101010-11111111/4-|
D|-7777777-1010101010-11111111/4-|



e|-----------------------------------|
B|-----------------------------------|
G|-----------------------------------|
D|-----------------------------------| x2
A|-----------------------------0-3-5-|
D|00000-3-00000-5-000000-0-3-5-------|



e|--------------------|
B|--------------------|        repeat...
G|--------------5/777-|
D|00-3-5-00-3-5-5/777-|
A|00-3-5-00-3-5-3/555-|
D|00-3-5-00-3-5-------|


e|--------------------|
B|--------------------|        repeat...
G|--------------------|
D|00-3-00-5-00-666-5--|
A|00-3-00-5-00-666-5--|
D|00-3-00-5-00-666-5--|


e|-------|
B|-------|      
G|-------|
D|-3-5-3-|
A|-3-5-3-|
D|-3-5-3-|


e|--------------|      |----------------------------------------------------------|
B|--------------|      |----------------------------------------------------------|
G|--7777-8-777--|  x3  |----------7777-10--777-7777-10--777-7777-10--770----------|
D|--7777-8-777--|      |-55-0-333-7777-10--777-7777-10--777-7777-10--770-55-0-333-|  repeat
A|--------------|      |-55-0-333-5555-8---555-5555-8---555-5555-8---550-55-0-333-|
D|--------------|      |-55-0-333----------------------------------------55-0-333-|



e|-----------------------------------|
B|-----------------------------------|
G|-----------------------------------|
D|-----------------------------------| x2
A|-----------------------------0-3-5-|
D|00000-3-00000-5-000000-0-3-5-------|

e|--------------------|
B|--------------------|        repeat...
G|--------------5/777-|
D|00-3-5-00-3-5-5/777-|
A|00-3-5-00-3-5-3/555-|
D|00-3-5-00-3-5-------|


e|--------------------|
B|--------------------|        repeat...
G|--------------------|
D|00-3-00-5-00-666-5--|
A|00-3-00-5-00-666-5--|
D|00-3-00-5-00-666-5--|

e|-------|
B|-------|      
G|-------|
D|-3-5-3-|
A|-3-5-3-|
D|-3-5-3-|


e|-----------------------------------|
B|-----------------------------------|
G|-----------------------------------|     PALM MUTED
D|-----------------------------------| x2
A|-----------------------------0-3-5-|
D|00000-3-00000-5-000000-0-3-5-------|


e|--------------|      |-------------------------------------------------------||       |---|
B|--------------|      |-------------------------------------------------------||o      |---|
G|--7777-8-777--|  x3  |----------7777-8--777-7777-8--777-7777-8--770----------||       |---|
D|--7777-8-777--|      |-55-0-333-7777-8--777-7777-8--777-7777-8--770-55-0-333-||   x2  |-0-|
A|--------------|      |-55-0-333-----------------------------------0-55-0-333-||o      |-0-|
D|--------------|      |-55-0-333-------------------------------------55-0-333-||       |-0-|





Comments


Popular Le Chat Noir tabs & chords
Is Ignorance A Sin Tabs
No One Left To Blame Tabs
Pull The Trigger Tabs
Scarlet Mistress Tabs
Seeing Double Tabs
Streets Of Silver City Tabs


Song lyrics



↑ Back to top | Tablatures and chords are parodies/interpretations of the original songs. You may use it for private study, scholarship, research or language learning purposes only
© 2014 AZChords.com Contact us | Privacy policy | DMCA | Add/correct tabs | Request tabs | Top 50 tabs