» » »

Streets Of Silver City Tabs (ver.1)

Artists:  A B C D E F G H I J K L M N O P Q R S T U V W X Y Z # 

Streets Of Silver City Tabs (ver.1)

Le Chat Noir
Rating:
5/5 (1 vote)

Hard to play? Try these video lessons and learn fast.
                Le Chat Noir - Streets Of Silver City

Tuning- Drop D



Intro:

w/ Palm muting:

e|-------------------------------------------------------------------------|
B|-------------------------------------------------------------------------|
G|-------------------------------------------------------------------------|
D|-------------------------------------------------------------------------|
A|-------------------------------------------------------------------------|
D|--5-5-5-3-5---5-5-5-3-0---5-5-5-3-5-10-10-10/5-5-3-3-0-------------------|

No muting and heavy distortion:

e|-------------------------------------------------------------------------|
B|-------------------------------------------------------------------------|
G|-------------------------------------------------------------------------|
D|--5-5-5-3-5---5-5-5-3-0---5-5-5-3-5-10-10-10/5-5-3-3-0-------------------|
A|--5-5-5-3-5---5-5-5-3-0---5-5-5-3-5-10-10-10/5-5-3-3-0-------------------|
D|--5-5-5-3-5---5-5-5-3-0---5-5-5-3-5-10-10-10/5-5-3-3-0-------------------|




Verse 1 w/ Palm muting


e|---------------------------------------------------------|
B|---------------------------------------------------------|
G|---------------------------------------------------------|
D|---------------------------------------------------------|
A|---------------------------------------------------------|
D|--5-5-5-3-5---5-5-5-3-0---5-5-5-3-5-10-10-10/5-5-3-3-0---| X2




Chorus w/ Heavy Distortion


e|-----------------------------------------------------------------------|
B|-----------------------------------------------------------------------|
G|-----------------------------------------------------------------------|
D|--5-5-5-5-5-5-5-5-8-8-8-8-10-10-10-10------5-5-5-3-3-5-5-8-8-5-5-5-3-0-|
A|--5-5-5-5-5-5-5-5-8-8-8-8-10-10-10-10------5-5-5-3-3-5-5-8-8-5-5-5-3-0-|
D|--5-5-5-5-5-5-5-5-8-8-8-8-10-10-10-10------5-5-5-3-3-5-5-8-8-5-5-5-3-0-|X2




Verse 2


w/ Palm muting


e|---------------------------------------------------------|
B|---------------------------------------------------------|
G|---------------------------------------------------------|
D|---------------------------------------------------------|
A|---------------------------------------------------------|
D|--5-5-5-3-5---5-5-5-3-0---5-5-5-3-5-10-10-10/5-5-3-3-0---| X2





Chorus w/ Heavy Distortion


e|-----------------------------------------------------------------------|
B|-----------------------------------------------------------------------|
G|-----------------------------------------------------------------------|
D|--5-5-5-5-5-5-5-5-8-8-8-8-10-10-10-10------5-5-5-3-3-5-5-8-8-5-5-5-3-0-|
A|--5-5-5-5-5-5-5-5-8-8-8-8-10-10-10-10------5-5-5-3-3-5-5-8-8-5-5-5-3-0-|
D|--5-5-5-5-5-5-5-5-8-8-8-8-10-10-10-10------5-5-5-3-3-5-5-8-8-5-5-5-3-0-|X2





Solo:


e|-------------------------------------------------------------------------|
B|------------11----------------------------------11-13b--------------11---|
G|-12-12-12p10--12---12-12-12p10---------12-12-12-------12-12-12-12-10---12|
D|-------------------------------10-12-------------------------------------|
A|-------------------------------------------------------------------------|
D|-------------------------------------------------------------------------|





Chorus w/ Heavy Distortion


e|-----------------------------------------------------------------------|
B|-----------------------------------------------------------------------|
G|-----------------------------------------------------------------------|
D|--5-5-5-5-5-5-5-5-8-8-8-8-10-10-10-10------5-5-5-3-3-5-5-8-8-5-5-5-3-0-|
A|--5-5-5-5-5-5-5-5-8-8-8-8-10-10-10-10------5-5-5-3-3-5-5-8-8-5-5-5-3-0-|
D|--5-5-5-5-5-5-5-5-8-8-8-8-10-10-10-10------5-5-5-3-3-5-5-8-8-5-5-5-3-0-|X2
            
Hard to play? Try these video lessons and learn fast. | Correct




comments powered by Disqus
↑ Back to top | Tablatures and chords are parodies/interpretations of the original songs. You may use it for private study, scholarship, research or language learning purposes only