>
 >
Sour Grapes

Sour Grapes Guitar Tabs

Leatherface - Sour Grapes chords, tabs, tablatures, lyrics

Guitar lessons | Add/correct | Request | Top 50 tabs Artists:  A B C D E F G H I J K L M N O P Q R S T U V W X Y Z 0-9

Sour Grapes Guitar Tabs – Leatherface

CD, Sheet music, Poster

Do you like Sour Grapes? Share with your friends now
Tabs
-------------------------------------------------------------------------------
-------------------------------------------------------------------------------


Here is my tabbed version as figured out by my ears...so its not 100% correct 
to what Stubbs plays...
but it shouldnt be too far from it...

Tuning: standard

Intro/verse
gtr 1
e|--------------------------------------------------------------------------|
B|------8-------------------------------------------------------------------|
G|--5---7------5---7-------4h5-4--------------------------------------------|
D|---7----------7---0------5-5-5--------------------------------------------|
A|--------------------------------------------------------------------------|
E|--------------------------------------------------------------------------|

gtr 2
e|--------------------------------------------------------------------------|
B|--------------------------------------------------------------------------|
G|-----------------------5---5---7---5--------------------------------------|
D|----5---------5------7---5---5---7----------------------------------------|
A|--7---7-----7---7---------------------------------------------------------|
E|--------------------------------------------------------------------------|

   F                   G        Am               G
e|--------------------------------------------------------------------------|
B|-----------------------------5--5----5-5----------------------------------|
G|2---2------2---2----4--4-----5--5----5-5------4--4------------------------|
D|3---3------3---3----5--5-----7--7----7-7------5--5------------------------|
A|3---3------3---3----5--5-----7--7----7-7------5--5------------------------|
E|1---1------1---1----3--3-----5--5----5-5------3--3------Rpt---------------|

chorus
    C           G            Am            F
e|--------------------------------------------------------------------------|
B|-1------------------------1-------------1---------------------------------|
G|-0-----------0------------2-------------2---------------------------------|
D|-2-----------0------------2-------------3---------------------------------|
A|-3-----------2------------0-------------3---------------------------------|
E|-------------3--------------------------1---------------------------------|

Bridge

e|--------------------------------------------------------------------------|
B|----8-----8-----8-----8------8------8-------8-------8---------------------|
G|----9-----9-----9-----9------9------9-------9-------9---------------------|
D|--------------------------------------------------------------------------|
A|--8----8-----8-----8------10-----10-----10------10------------------------|
E|--------------------------------------------------------------------------|

e|--------------------------------------------------------------------------|
B|-----5-----5-----5-----5-----5-----5-----3----3---------------------------|
G|-----5-----5-----5-----5-----5-----5-----4----4---------------------------|
D|--------------------------------------------------------------------------|
A|--0-----0-----0-----0-----0-----0-----0-----0------------Rpt--------------|
E|--------------------------------------------------------------------------|

solo

e|--------------------------------------------------------------------------|
B|--------------------------------------------------------------------------|
G|----5-4--5-4-2------5-4--5-4-0-----5-4-5-9---------9---7---5--------------|
D|3-------------------------------------------------------------------------|
A|--------------------------------------------------------------------------|
E|--------------------------------------------------------------------------|

e|--------------------------------------------------------------------------|
B|--------------------------------------------------------------------------|
G|----5-4--5-4-2------5-4--5-4-0-----5-4-5---12------9---7---5--------------|
D|3-------------------------------------------------------------------------|
A|--------------------------------------------------------------------------|
E|--------------------------------------------------------------------------|


outro

e|--------------------------------------------------------------------------|
B|------8-------------------------------------------------------------------|
G|---------9-----------9----------------------------------------------------|
D|---10--------------------10-----------------------------------------------|
A|8---------------8---------------------------------------------------------|
E|--------------------------------------------------------------------------|



| /  slide up
| \  slide down
| h  hammer-on
| p  pull-off
| ~  vibrato
| +  harmonic
| x  Mute note
===============================================================================





Comments


Popular Leatherface tabs & chords
Plastic Surgery Chords
Dead Industrial Atmosphere Tabs
Deep Green Beautiful Levelling Tabs
Evo Pop Intro Tabs
I Dont Want To Be The One To Say It Intro Tabs
Little White God Tabs
Not A Day Goes By Tabs
Not A Day Goes By Intro Tabs
Not Superstitious Tabs
Pale Moonlight Tabs


Song lyrics



↑ Back to top | Tablatures and chords are parodies/interpretations of the original songs. You may use it for private study, scholarship, research or language learning purposes only
© 2014 AZChords.com Contact us | Privacy policy | DMCA | Add/correct tabs | Request tabs | Top 50 tabs