» » »

Leatherface, Not Superstitious Tabs (ver.1)

Artists:  A B C D E F G H I J K L M N O P Q R S T U V W X Y Z # 

Not Superstitious Tabs (ver.1)

Leatherface Tabs
 Rating:
4/5 (4 votes)
Not Superstitious lessons Tabs too difficult? Try these video lessons and learn fast
                
Leatherface
 'Not Superstitious'

Standard Tuning EADGBe

Intro Riff
-----------x----------------------------------------0----------|
-----------0-----0----------------7-8---8----7------0----------|
-----------0-----7------9---------------0----0------7----------|
---9---9---9-----x------0---------------x----9------9----------|
--10--10--10-----9------x--------------10----9------7----------|
------------------------8---------------------------0----------|


--------------------------------------------7----7-7-----7-----|
-------0---x               -----------------8----8-8-----7-----|
-------7---9---7------7---9-------7--9------9----9-9-----7-----|
---9---x---0------9---        ----0--x------9----9-9-----9-----|
--10---9---x-----------------10--10--9---7--7----7-7-----7-----|
-----------8---------------------------------------------------|
         Here your pinky plays the lead
         parts whilst kind of holding the
         chord behind it.
Basically the intro is a fiddly one to get right, but it is a case of getting the right 
on the right strings (mostly 2nd and 4th/pinky)

The chorus is  G, D, C

The main verse is

-------------------------------------|
-------------------------------------|
----------0-----------------0--------|
----------2-----------------2--------|
---2--0---3--------2---0----2--------|
---3--2---0--------3---2----0--------|

------------------------------------7-7-----7----7--7-----|
--------------------------------8---8-8-----7----7--7-----|
-------0------------------0-----9---9-9-----7----7--7-----|
-0-----2-------0----------2-----9---9-9-----9----9--9-----|
-2--0--3-------2-----0----2-----7---7-7-----7----7--7-----|
-3--2--0-------3-----2----0-------------------------------|  Rpt


There you have it (best i can do anyways)
(just play a long and listen a few times, it will eventually make sense..
Hail Frankie Stubbs!!!!)

Enjoy...
            
Submit corrections

comments powered by Disqus
↑ Back to top | Leatherface Tabs for Not Superstitious. Lyrics for acoustic guitar and electric guitar. Tablatures and chords are parodies/interpretations of the original songs. You may use it for private study, scholarship, research or language learning purposes only