» » »

Little White God Tabs (ver.1)

Artists:  A B C D E F G H I J K L M N O P Q R S T U V W X Y Z # 

Little White God Tabs (ver.1)

Leatherface
Rating:
0/5 (0 votes)

Tabs too difficult? Try these video lessons and learn fast.
                          LITTLE WHITE GOD
              (By Leatherface)


this is my version and may not be correct-
i am sure its close tho....(PaulyPJ)

[Standard tuning EADGBe]


intro
--------------------------------5--|
----------------6--------------5---|
--------------6-6----6--------6----|
--2-2---4-4---6-6--6-6----7---7----|
--2-2---4-4---4-4--6-6----7---7----|
--0-0---2-2--------4-4----5---5----|

verse riff
-------------------------------|
----------------------5---4-5--|
--------------4--6-4-----------|
-----------6-------------------|
-------------------------------|
-------------------------------|

bridge
--------------------------------5--|
----------------6--------------5---|
--------------6-6----6--------6----|
--2-2---4-4---6-6--6-6----7---7----|
--2-2---4-4---4-4--6-6----7---7----|
--0-0---2-2--------4-4----5---5----|


'..we can live....' (palm mute x2)
-------------------------------------------|
-------------------------------------------|
--------------6----------------------------|
---6----------6------------7--------4------|
---6----------4----X8------7--------4------|
---4--X8-------------------5-X8-----2--X8--|  rpt x4

solo

play about with this riff really its just a mix of these 3 riffs below...

-------------------------------------|
----------------------5---4-5--------|
--------------4--6-4--------------4--|
-----------6--------------------6----|
-------------------------------------|
-------------------------------------|
{                1                  }


----------------------------------------------------|
5-5--4-4--------------------------------------------|
------------6-6--4-4------6-----4---6-4---6-4---6-4-|
------------------------6---6-----6-----6-----6-----|
----------------------------------------------------|
----------------------------------------------------|
{           2          }{               3             }

Frankie is such a legend when it comes to guitar riffs and using part-chords (as i call 'em) its
often quite tricky to work out. Also quite hard to sing whilst playing sometimes so when 
critisize
when he plays this song live as a three piece, all i can say is he does a great job.

I will patiently try and work out more songs soon :-)
            
Tabs too difficult? Try these video lessons and learn fast.




comments powered by Disqus
↑ Back to top | Tablatures and chords are parodies/interpretations of the original songs. You may use it for private study, scholarship, research or language learning purposes only