» » »

Leatherface, I Dont Want To Be The One To Say It Tabs (ver.1)

Artists:  A B C D E F G H I J K L M N O P Q R S T U V W X Y Z # 

I Dont Want To Be The One To Say It Tabs (ver.1)

Leatherface Tabs
 Rating:
4/5 (4 votes)
I Dont Want To Be The One To Say It lessons Tabs too difficult? Try these video lessons and learn fast
                (Intro)
Intro (x4)/Verse (x6) (Not sure about the rhythm)

    Q   E  E  Q  E E  +E E Q  E E E E   Q   E  E  Q  E E
1|-------------------|----------------|------------------|
2|-------------------|----------------|------------------|
3|-------------------|----------------|------------------|
4|--11--11-11-7--7-9-|---9-9--9-9-9-9-|-11--11-11-7--7-9-|
5|--11--11-11-7--7-9-|---9-9--9-9-9-9-|-11--11-11-7--7-9-|
6|--9---9--9--5--5-7-|---7-7--7-7-7-7-|-9---9--9--5--5-7-|


Bridge (x6) (Palm muted, all eighth notes)

1|--------------|-------|
2|--------------|-------|
3|--------------|-------|
4|-11-----7-----|-9-----|
5|-11-x4--7-x4--|-9-x8--|
6|-9------5-----|-7-----|


Outro (Repeat until the end)

Same as Bridge, but without palm muting

Q - Quarter note
E - Eighth note
+ - Tied note
            
Submit corrections

comments powered by Disqus
↑ Back to top | Leatherface Tabs for I Dont Want To Be The One To Say It. Lyrics for acoustic guitar and electric guitar. Tablatures and chords are parodies/interpretations of the original songs. You may use it for private study, scholarship, research or language learning purposes only