» » »

Hops And Barley Tabs (ver.1)

Artists:  A B C D E F G H I J K L M N O P Q R S T U V W X Y Z # 

Hops And Barley Tabs (ver.1)

Leatherface
Rating:
0/5 (0 votes)

Hard to play? Try these video lessons and learn fast.
                
VERSE
E|--------------|
B|--------------|
G|--------------|
D|--7--5--3--5--|
A|--7--5--3--5--|
E|--5--3--1--3--|

CHORUS
E|-----------------------------|
B|-----------------------------|
G|--5-----5--7--5--7--3--5--7--|
D|--5--7--5--7--5--7--3--5--7--|
A|--3--7--3--5--3--5--1--3--5--|
E|-----5-----------------------|

OUTRO(SOLO)
E|-----------------------------------------------------|
B|-----------------------------------------------------|
G|--9--9--7/9---9--7--9--5--7\4--4--4--4/5-------9--9--|
D|------------7-----------------------------5/7--------|
A|-----------------------------------------------------|
E|-----------------------------------------------------|

E|------------|------------------------------------|
B|------------|------------------------------------|
G|--9--7\5/7--|4/5-4/5-4/5-4/5-4/5-4/5-4/5---------|
D|------------|-----------------------------5--7^--|
A|------------|------------------------------------|
E|------------|------------------------------------|
            
Hard to play? Try these video lessons and learn fast. | Correct




comments powered by Disqus
↑ Back to top | Tablatures and chords are parodies/interpretations of the original songs. You may use it for private study, scholarship, research or language learning purposes only