» » »

Leatherface, Deep Green Beautiful Levelling Tabs (ver.1)

Artists:  A B C D E F G H I J K L M N O P Q R S T U V W X Y Z # 

Deep Green Beautiful Levelling Tabs (ver.1)

Leatherface Tabs
 Rating:
4/5 (4 votes)
Deep Green Beautiful Levelling lessons Tabs too difficult? Try these video lessons and learn fast
1
                -------------------------------------------------------------------------------
-------------------------------------------------------------------------------

Tuning:standard

intro
e|-1-------------------------------------------|----------------------0------|
B|-1----------------1-----------5-5---3---0/1--|----------------------1------|
G|-2----------------2-----------0-0---0---2----|----------------------2------|
D|-3------0---0-----2---------------------3----|------2-2----0-0------2------|
A|-3------2-0-2-----0---------------------3----|------2-2----2-2------0------|
E|-1------3-3-3--------------------------------|------0-0----3-3-------------|
                                            rpt x3
Verse
e|---------------------------------------------------0--------------0--------|
B|------5--5--5--5--5---5---3---3--------------------1--------------1--------|
G|-----5--5--5--5--5--5---5---5----------------------2--------0-----2--------|
D|---------------------------------------------------3--------0-----2--------|
A|-------------------------------------------Rpt-----3--------2--------------|
E|------------------------------------------------------------3---------Rpt--|

chorus
e|--------------------------------------------------0------------------------|
B|--------------------------------------------------1------------------------|
G|----10-10---10-10--10-10--------------------------2------------------------|
D|----10-10---10-10--10-10--10-10---10----10--------2------------------------|
A|-----8--8----8-8----8-8----8-8-----8-----8---------------------------------|
E|---------------------------------------------------------------------------|

e|--------------------------------------------------0--------3---------------|
B|--------------------------------------------------1--------3---------------|
G|----10-10---10-10--10-10--------------------------2--------0---------------|
D|----10-10---10-10--10-10--10-10---10----10--------2--------0---------------|
A|-----8--8----8-8----8-8----8-8-----8-----8-----------------2---------------|
E|-----------------------------------------------------------3---------------|

solo bit
e|---------------------------------------------------------------------------|
B|-----5-3-------------------------------------------------------------------|
G|----------5---2----------4-5-4---0-----------------------------------------|
D|---------------------------------------------------------------------------|
A|---------------------------------------------------------------------------|
E|---------------------------------------------------------------------------|


| /  slide up
| \  slide down
| h  hammer-on
| p  pull-off
| ~  vibrato
| +  harmonic
| x  Mute note
===============================================================================
            
Submit corrections

comments powered by Disqus
↑ Back to top | Leatherface Tabs for Deep Green Beautiful Levelling. Lyrics for acoustic guitar and electric guitar. 1 Tablatures and chords are parodies/interpretations of the original songs. You may use it for private study, scholarship, research or language learning purposes only