>
 >
Pasko Na Sinta Ko

Pasko Na Sinta Ko Guitar Tabs

Lea Salonga - Pasko Na Sinta Ko chords, tabs, tablatures, lyrics

Guitar lessons | Add/correct | Request | Top 50 tabs Artists:  A B C D E F G H I J K L M N O P Q R S T U V W X Y Z 0-9

Pasko Na Sinta Ko Guitar Tabs – Lea Salonga

CD, Sheet music, Poster

Do you like Pasko Na Sinta Ko? Share with your friends now
Tabs
===============================================================================
                     Pasko Na, Sinta Ko - Lea Salonga
--------------------------------------------------------------------------------

legends:
  x -> mute the string    
  p -> pull-off
  h -> hammer-on
  s -> slide
  + -> harmonics

NOTE: measure 27, chord 2 - ang talagang naririnig ko ay 4xx23x kaya lang ang
      hirap abutin kaya ginawa na lang 2xx23x ^^ Maligayang Pasko Po! hehe

*VERSES are ARRANGED for easier playing

INTRO
  1                         2                         3
  D                         xx0433                    xx0655
  1 * * * 2 * * * 3 * * *   1 * * * 2 * * * 3 * * *   1 * * * 2 * * * 3 * * *
|-------------2-------5---|-3-----------3-----------|-------------5-----------|
|---------3---------------|---------3---------------|---------5---------------|
|-----2-------------------|-----4-------------------|-----6-------------------|
|-0-----------------------|-0-----------------------|-0-----------------------|
|-------------------------|-------------------------|-------------------------|
|-------------------------|-------------------------|-------------------------|

  4                         5                         6
                            222222              open  Bm7
  1 * * * 2 * * * 3 * * *   1 * * * 2 * * * 3 * * *   1 * * * 2 * * * 3 * * *
|-10--9-------------------|-----------------2---0---|-------------------------|
|---------10--------------|-------------2-----------|-------------3-----------|
|-------------------------|---------2---------------|---------2---------------|
|-------------------------|------2------------------|-----4-------------------|
|-------------------------|-------------------------|-2-----------------------|
|-------------------------|-2-----------------------|-------------------------|

  7                         8                         9
  Csus2                     A7sus4          A7
  1 * * * 2 * * * 3 * * *   1 * * * 2 * * * 3 * * *   1 * * * 2 * * * 3 * * *
|-----------------3-------|-------------------------|-------------------------|
|-------------3-------3---|-------------3---2-------|-------------------------|
|---------5---------------|---------0---------------|-----------rest----------|
|-----5-------------------|-----2-------------------|-------------------------|
|-3-----------------------|-0-----------------------|-------------------------|
|-------------------------|-------------------------|-------------------------|
                                                                     Pas- ko

VERSE I
  10                        11                        12
  Dsus2                     x4xx55                    x3x555
  1 * * * 2 * * * 3 * * *   1 * * * 2 * * * 3 * * *   1 * * * 2 * * * 3 * * *
|-----------------5-------|---------5---------------|-------------5-----------|
|-------------5-------5---|-----5-----------5-------|---------5-------5-------|
|---------7---------------|-------------------------|-----5-------------------|
|-----7-------------------|-------------------------|-------------------------|
|-5-----------------------|-4-----------------------|-3-----------------------|
|-------------------------|-------------------------|-------------------------|
 na                 sinta    ko                    hanap           ha- nap  ki-

  13                        14                        15
  x2x033                    x1x333                    x07755
  1 * * * 2 * * * 3 * * *   1 * * * 2 * * * 3 * * *   1 * * * 2 * * * 3 * * *
|---------3---------------|-------------3-----------|-------------5-----------|
|-------------------------|---------3-------3-------|-------------------------|
|-----0-------------------|-----3-------------------|---------7-------7-------|
|-------------------------|-------------------------|-----7-------------------|
|-2-----------------------|-1-----------------------|-0-----------------------|
|-------------------------|-------------------------|-------------------------|
  ta                    ba-  kit         nag-  tatam-  po                   ni-


  16                        17
  x1x333                    A7sus4
  1 * * * 2 * * * 3 * * *   1 * * * 2 * * * 3 * * *
|-------------3-----------|-----------------0-------|
|---------3-------3-------|-------------3-----------|
|-----3-------------------|---------0---------------|
|-------------------------|-----2-------------------|
|-1-----------------------|-0-----------------------|
|-------------------------|-------------------------| (10)     (11)
 li-       san          a-  ko               kung mawa-    wala ka

    (12)        (13)    (14)
 sa piling ko sinta    paano ang pas-

  16                        17                        18
  x07755                    A7                        xx0233
  1 * * * 2 * * * 3 * * *   1 * * * 2 * * * 3 * * *   1 * * * 2 * * * 3 * * *
|-------------5-----------|---------------------5---|-------------3-----------|
|-----------------5-------|-----------------5-------|---------3-------3-------|
|---------7-----------7---|-------------6-----------|-----2---------------2---|
|-----7-------------------|---------5---------------|-0-----------------------|
|-0-----------------------|-----7-------------------|-------------------------|
|-------------------------|-5-----------------------|-------------------------|
  kong                  i-    nu-     li-       la     mo

  19
  D
  1 * * * 2 * * * 3 * * * 
|-2-----------2-----------|
|---------3-----------3---|
|-----2---------------2---|
|-0-----------------------|
|-------------------------|
|---------------------2---|
                      Sa-

CHORUS
  20                        21                        22
  334433                    3x2222              open  222222              open
  1 * * * 2 * * * 3 * * *   1 * * * 2 * * * 3 * * *   1 * * * 2 * * * 3 * * *
|-------------------------|---------------------0---|---------------------0---|
|-------------3-----------|-------------2---3-------|-------------2-----------|
|---------4---------------|---------2---------------|---------2---------------|
|-----4-------------------|-----2-------------------|-----2-------------------|
|-------------------------|-------------------------|-------------------------|
|-3-----------------------|-3-----------------------|-2-----------------------|
yang                  sin- ta              ang si-     num-           pa-


  23                          24                        
  Bm7                         02403x
  1 * * * 2 * *  *  3 * * *   1 * * * 2 * * * 3 * * *
|---------------------------|-------------------------|
|-------------2h3p2---------|-----------------3-------|
|---------2---------2-------|-------------0-------0---|
|-----4---------------------|---------4---------------|
|-2-------------------------|-----2-------------------|
|---------------------------|-0-----------------------|
  an                 at pag-   ti-         tingi-

  25                        26                        27
  A7sus4          A7        D#sus2                    555555          2xx23x
  1 * * * 2 * * * 3 * * *   1 * * * 2 * * * 3 * * *   1 * * * 2 * * * 3 * * *
|-------------------------|-------------5-----------|---------5---------------|
|---------3-------2-------|---------------------5---|-5---------------3-------|
|-------------------------|---------7-------7-------|-5---------------2-------|
|-----2-------2-----------|-----7-------------------|-5---5-------------------|
|-0-----------------------|-5-----------------------|-------------------------|
|-------------------------|-------------------------|-5---------------2-------|
 nang               tu-     nay                                         na-

  (20)  (21)     (22)    (23)     (24)
  is mo bang kalimutang ganap ang ating suyu-

  28                        29                        30
  444454                    A7sus4                    A7
  1 * * * 2 * * * 3 * * *   1 * * * 2 * * * 3 * * *   1 * * * 2 * * * 3 * * *
|-------------4-----------|---------------------5---|-5-----------------------|
|---------5---------------|-----------------5-------|-5-----------------------|
|-----4-------------------|-------------7-----------|-6-----------------------|
|-------------------------|---------5---------------|-5-----------------------|
|-------------------------|-----7-------------------|-7-----------------------|
|-4-----------------------|-5-----------------------|-5-----------------------|
  an        at               ga-   lak                               kung  ma-


VERSE II
  (10)   (11)   (12)        (13)
   wawala ka sa piling ko sinta  pa-

  31                        32                        33
  668786                    557755                    x02430          x02320
  1 * * * 2 * * * 3 * * *   1 * * * 2 * * * 3 * * *   1 * * * 2 * * * 3 * * *
|-----------------6-------|-----------------5-------|-----------------0-------|
|-------------8-------8---|-------------5-------5---|-------------3---2(hold)-|
|---------7---------------|---------7---------------|---------4-------3-------|
|-----8-------------------|-----7-------------------|-----2-----------2-------|
|-------------------------|-------------------------|-0---------------0-------|
|-6-----------------------|-5-----------------------|-------------------------|
  a-   no        ang  pas-  kong                        a- lay  ko


  sa'yo...

ADLIB

  34                        35                        36
  D                         xx0433                    xx0655
  1 * * * 2 * * * 3 * * *   1 * * * 2 * * * 3 * * *   1 * * * 2 * * * 3 * * *
|-------------2-------5---|-3-----------------------|-------------5-----------|
|---------3---------------|---------3---------------|-3s5-----5---------------|
|-----2-------------------|-----4-------4-----------|-----6-------------------|
|-0-----------------------|-0-----------------------|-0-----------------------|
|-------------------------|-------------------------|-------------------------|
|-------------------------|-------------------------|-------------------------|

  37                       38                         40
                            222222              open  Bm7
  1 * * * 2 * * * 3 * * *   1 * * * 2 * * * 3 * * *   1 * * * 2 * * * 3 * * *
|-10--9---5-------2-------|-----------------2---0---|---------------------2---|
|-------------------------|-------------2-----------|-------------2---3-------|
|-11--9---6-------2-------|---------2---------------|---------2---------------|
|-0-----------------------|-----2-------------------|-----4-------------------|
|-------------------------|-------------------------|-2-----------------------|
|-------------------------|-2-----------------------|-------------------------|

  41                        42
  Csus2                     A7sus4  A7
  1 * * * 2 * * * 3 * * *   1 * * * 2 * * * 3 * * *
|-----------------3-------|-------------------------|
|-------------3-------3---|-3-------2---------------|
|---------5---------------|---------0---------------|
|-----5-------------------|-----2-------------------|
|-3-----------------------|-0-----------------------|
|-------------------------|-------------------------|

(reapeat CHORUS) medyo nag-iba lang ang plucking at gamitin sa measure 25
                 yung mga 5th fret chord ng A7sus(575755) at A7(575655)
(repeat VERSE II)


OUTRO
  D                         xx0433                      xx0655
  1 * * * 2 * * * 3 * * *   1 * * * 2 * * * 3 * * *   1 * * * 2 * * * 3 * * *
|-------------2---3---5---|-3-----------------------|-------------5-----------|
|---------3---------------|---------3---------------|-3s5-----5---------------|
|-----2-------------------|-----4-------4-----------|-----6-------------------|
|-0-----------------------|-0-----------------------|-0-----------------------|
|-------------------------|-------------------------|-------------------------|
|-------------------------|-------------------------|-------------------------|

                            222222                    Bm7
  1 * * * 2 * * * 3 * * *   1 * * * 2 * * * 3 * * *   1 * * * 2 * * * 3 * * *
|-10--9---5---------------|-----------------2-------|-------------------------|
|-------------------------|-------------2-----------|-----------2h3p2---------|
|-11--9---6---------------|---------2---------------|---------2-------2-------|
|-0-----------------------|-----2-------------------|-----4---------------4---|
|-------------------------|-------------------------|-2-----------------------|
|-------------------------|-2-----------------------|-------------------------|

  Csus2                     A7sus2          A7
  1 * * * 2 * * * 3 * * *   1 * * * 2 * * * 3 * * *
|-----------------3-------|-------------------------|
|-------------3-------3---|-------------3---2-------|
|---------5---------------|---------0---------------|
|-----5-------------------|-----2-------------------|
|-3-----------------------|-0---------------0-------|
|-------------------------|-------------------------|

                       ,-sustain this note while plucking the harmonic
  xx0230              /
  1 * * * 2 * * * 3 * * * 1 * * * 2 * * * 3 * * *
|-------------0---5-------------------------------|
|---------3-----------7---------------------------|
|-----2-------------------7+----------------------|
|-0-----------------------------------------------|
|-------------------------------------------------|
|-------------------------------------------------|
  \
   `-sustain this note

===============================================================================





Comments


Popular Lea Salonga tabs & chords
Give Me A Chance Chords
I Am But A Small Voice Chords
I Will Always Stay In Love This Way Chords
Two Words Chords
Friend Of Mine Tabs
Friend Of Mine Ukulele
Give Me A Chance Ukulele
I Will Always Stay In Love This Way Ukulele
Nandito Ako Ukulele
The Journey Ukulele


Song lyrics



↑ Back to top | Tablatures and chords are parodies/interpretations of the original songs. You may use it for private study, scholarship, research or language learning purposes only
© 2014 AZChords.com Contact us | Privacy policy | DMCA | Add/correct tabs | Request tabs | Top 50 tabs