>
 >
Friend Of Mine

Friend Of Mine Guitar Tabs

Lea Salonga - Friend Of Mine chords, tabs, tablatures, lyrics

Guitar lessons | Add/correct | Request | Top 50 tabs Artists:  A B C D E F G H I J K L M N O P Q R S T U V W X Y Z 0-9

Friend Of Mine Guitar Tabs – Lea Salonga

CD, Sheet music, Poster

Do you like Friend Of Mine? Share with your friends now
ChordsTabsUkulele
===============================================================================
--------------------------------------------------------------------------------

NOTE: Scroll down for the CHORDS in STANDARD TUNING (no capo).


*CAPO ON 6TH FRET---------------------------------------------------------------

legend:
  h -> hammer-on

NOTE: Pinasimple ko na lang yung plucking ng VERSES at CHORUS pero yung INTRO
      ni-retain ko yung original plucking. Ganda ng plucking ng song na ito:
      medyo mabilis pero madali lang ang mga chords since karamihan ay "open."


INTRO
     1                                 2
     G(broken)                         C(broken)
     300000                    300030  x30030          x34000
     1 * * * 2 * * * 3 * * * 4 * * *   1 * * * 2 * * * 3 * * * 4 * * *
  e|---------------------------------|-------0-------------------------|
  B|---------------0-----------3-----|---------------3-------0---------|
  G|-----0-2-----0-------0-2-------0-|-----0-------0-------0-----2---0-|
  D|---0-------0-------0---------0---|---0-------0-------4---------4---|
  A|---------------------------------|-3-------3-------3-------3-------|
  E|-3-------3-------3---------------|---------------------------------|

     3                                 4
     300000                    300030  x30030          x34000
     1 * * * 2 * * * 3 * * * 4 * * *   1 * * * 2 * * * 3 * * * 4 * * *
  e|---------------------------------|-------0-------------------------|
  B|---------------0-----------3-----|---------------3-------0---------|
  G|-----0-2-----0-------0-2-------0-|-----0-------0-------0-----2---0-|
  D|---0-------0-------0---------0---|---0-------0-------4---------4---|
  A|---------------------------------|-3-------3-------3-------3-------|
  E|-3-------3-------3---------------|---------------------------------|
                                                                     Iíve 

VERSE I
     5                                 6
     300030                            x30030
     1 * * * 2 * * * 3 * * * 4 * * *   1 * * * 2 * * * 3 * * * 4 * * *
  e|---------------------------------|---------------------------0-----|
  B|-------3---------------3---------|-------3---------------3---------|
  G|-----0-----0---0-----0-----0---0-|-----0-----0---0-----0---0-----0-|
  D|---0---------0-----0---------0---|---0---------0-----0-------------|
  A|---------------------------------|-3---------------3-----------2---|
  E|-3---------------3---------------|---------------------------------|
  known you for so long you are a friend  of mine

     7                                 8
     Am7                 A7sus4        xx0233    D     xx0030  xx403x
     1 * * * 2 * * * 3 * * * 4 * * *   1 * * * 2 * * * 3 * * * 4 * * *
  e|---------------0-----------------|-------3-------2-------0---------|
  B|-------1-----1---------3-------3-|-----3-------3-------3-------3---|
  G|-----0-----0---------0-------0---|---2-------2-------0-------0-----|
  D|---2---------------2-------2-----|-0---------------0-------4-------|
  A|-0---------------0---------------|---------------------------------|
  E|---------------------------------|---------------------------------|
     but    is this all weíd ever  be                                Iíve 

     9                                 10
     300030                            x30030
     1 * * * 2 * * * 3 * * * 4 * * *   1 * * * 2 * * * 3 * * * 4 * * *
  e|---------------------------------|---------------------------0-----|
  B|-------3---------------3---------|-------3---------------3---------|
  G|-----0-----0---0-----0-----0---0-|-----0-----0---0-----0---0-----0-|
  D|---0---------0-----0---------0---|---0---------0-----0-------------|
  A|---------------------------------|-3---------------3-----------2---|
  E|-3---------------3---------------|---------------------------------|
 loved you ever since you are a friend of mine                      and 

     11                                12
     Am7                 A7sus4        xx0233    D     xx0030  xx403x
     1 * * * 2 * * * 3 * * * 4 * * *   1 * * * 2 * * * 3 * * * 4 * * *
  e|---------------0-----------------|-------3-------2-------0---------|
  B|-------1-----1---------3-------3-|-----3-------3-------3-------3---|
  G|-----0-----0---------0-------0---|---2-------2-------0-------0-----|
  D|---2---------------2-------2-----|-0---------------0-------4-------|
  A|-0---------------0---------------|---------------------------------|
  E|---------------------------------|---------------------------------|
    babe is this all we ever could be


                                                       (use Bm7 finger place-
CHORUS I                                                ment para ready na for
     13             (simply unbar Bm7) 14               the next chord)
     Bm7             0x403x            Am7             x04030
     1 * * * 2 * * * 3 * * * 4 * * *   1 * * * 2 * * * 3 * * * 4 * * *
  e|---------------------------------|-----------0---------------------|
  B|-------3---------------3---------|-------1-----1-------3-------3---|
  G|-----2-----2---------0-----0-----|-----0---------0---0---0---0---0-|
  D|---4---------4-----4---------4---|---2-------------4---------------|
  A|-2-------------2-----------------|-0-----------------------3-------|
  E|-----------------0-------------0-|---------------------------------|
you tell me things Iíve never known, I shown you love youíve never shown

     15                                16
     Bm7             0x403x            Am7             xx0030  x30030
     1 * * * 2 * * * 3 * * * 4 * * *   1 * * * 2 * * * 3 * * * 4 * * *
  e|---------------------------------|-------0-------------------------|
  B|-------3---------------3---------|-----------1---------3-------3---|
  G|-----2-----2---------0-----0-----|-----0-------0-----0---0---0---0-|
  D|---4---------4-----4---------4---|---2-----------2-0---------------|
  A|-2-------------2-----------------|-0-----------------------3-------|
  E|-----------------0-------------0-|---------------------------------|
but then again, when you cry       Iím always at your     side      you

     17                                18
     Bm7             0x403x            Am7             x04030
     1 * * * 2 * * * 3 * * * 4 * * *   1 * * * 2 * * * 3 * * * 4 * * *
  e|---------------------------------|-----------0---------------------|
  B|-------3---------------3---------|-------1-----1-------3-------3---|
  G|-----2-----2---------0-----0-----|-----0---------0---0---0---0---0-|
  D|---4---------4-----4---------4---|---2-------------4---------------|
  A|-2-------------2-----------------|-0-----------------------3-------|
  E|-----------------0-------------0-|---------------------------------|
   tell me íbout the love youíve had I     listen very eagerly      but

     19                                20
     Bm7             0x403x            A7sus4        A7        x34000
     1 * * * 2 * * * 3 * * * 4 * * *   1 * * * 2 * * * 3 * * * 4 * * *
  e|---------------------------------|-----------0---------------0-----|
  B|-------3---------------3---------|-------3-------2-------2-------2-|
  G|-----2-----2---------0-----0-----|-----0-------0-------0-------0---|
  D|---4---------4-----4---------4---|---2---------------2-------------|
  A|-2-------------2-----------------|-0---------------0-------0-------|
  E|-----------------0-------------0-|---------------------------------|
    deep inside youíll never see  this feeling     of emptiness      It

     21                                22
     xx0233                    D       A7sus4  x20030  x32030  Dsus2
     1 * * * 2 * * * 3 * * * 4 * * *   1 * * * 2 * * * 3 * * * 4 * * *
  e|-------3-----------------3-2-----|-----------------------0---------|
  B|-----3-----------------3-----3---|---------------------------3-----|
  G|---2-----------------2-----------|-----0-------0-------0-------2---|
  D|-0---------------0---------------|---2---2---0---0---2-----0-----0-|
  A|---------------------------------|-0-------2-------3---------------|
  E|---------------------------------|---------------------------------|
  makes me feel sad               but then       a-   gain...

  ...Iím glad


ADLIB (same as INTRO)


VERSE II (same as VERSE I)
  Iíve known you all my life
  you are a friend of mine
  I know this is how itís gonna be
  Iíve loved you then and I love you still
  youíre a friend of mine
  now I know friends are all we ever could be


CHORUS II (same as CHORUS I except for those which are indicated)
  you tell me things Iíve never known
  I shown you love youíve never shown
  but then again, when you cry
  Iím always at your side
  you tell me íbout the love youíve had
  I listen very eagerly
  but deep inside youíll never see
  this feeling of emptiness

     23                                24
     xx0233                    D       A7sus4  x20030  x32030  Dsus2
     1 * * * 2 * * * 3 * * * 4 * * *   1 * * * 2 * * * 3 * * * 4 * * *
  e|-------3-----------------3-2-----|---------------------------0-----|
  B|-----3-----------------3-----3---|-----------------------------3---|
  G|---2-----------------2-----------|-----0-------0-------0---------2-|
  D|-0---------------0---------------|---2---2---0---0---2---2-0-------|
  A|---------------------------------|-0-------2-------3---------------|
  E|---------------------------------|---------------------------------|
It makes me feel sad               but then      a-   gain

     25                                26                (babagal...then hold)
     Bm7             0x4030            A7sus4  x20030  x30200  xx0233
     1 * * * 2 * * * 3 * * * 4 * * *   1 * * * 2 * * * 3         4
  e|-------2-------2-----------------|---------------------------------3-2---|
  B|-------------3---------3---------|-------------------------------3-----3-|
  G|-----2-----2---------0-----0-----|-----0-------0-------2h4-2---2---------|
  D|---4-----4---------4---------4---|---2---2---0---0---0-------0-----------|
  A|-2-------------------------------|-0-------2-------3---------------------|
  E|-----------------0-------------0-|---------------------------------------|
    then     a-    gain               then         a- gain...

  ...Iím glad


OUTRO
     27                               28
           304000    230000    320000
     320000    320000      304000      x30030          x34000
     1 * * * 2 * * * 3 * * * 4 * * *   1 * * * 2 * * * 3 * * * 4 * * *
  e|---------------------------------|-------0-------------------------|
  B|---------------------------------|---------------3-------0---------|
  G|-----------0---------------0-----|-----0-------0-------0-----2---0-|
  D|-----0-4-------0-----0-4-------0-|---0-------0-------4---------4---|
  A|---2---0---2-------2---0---2-----|-3-------3-------3-------3-------|
  E|-3---------------3---------------|---------------------------------|

     29                                30
           304000    230000    320000                   (bagal then hold)
     320000    320000      304000      x30030          x34000
     1 * * * 2 * * * 3 * * * 4 * * *   1 * * * 2 * * * 3 * * * 4 * * *
  e|---------------------------------|-------0-------------------------|
  B|---------------------------------|---------------3-------0---------|
  G|-----------0---------------0-----|-----0-------0-------0-----------|
  D|-----0-4-------0-----0-4-------0-|---0-------0-------4-----0-------|
  A|---2---0---2-------2---0---2-----|-3-------3-------3---------------|
  E|-3---------------3---------------|---------------------------------|

     31
     1 * * * 2 * * * 3 * * * 4 * * *
  e|---------------------------------|
  B|---------------------------------|
  G|-0-------------------------------|
  D|-0-------------------------------|
  A|-2-------------------------------|
  E|-3-------------------------------|



*STANDARD TUNING---------------------------------------------------------------

  CHORDS: ----------------     ----------------     ----------------
          A#m     - x13321     D#7sus4 - x68696     Fm      - 133111
          C#      - x46664     D#m     - x68876     F#      - 244322
          D#7     - x68686     D#m7    - x68676     G#      - 466544
          ----------------     ----------------     ----------------


INTRO
C# F# C# F#


VERSE I
       C#
  I`ve known you for so long
                 F#
  you are a friend of mine
  D#m7                        G#
  but is this all we`d ever be
        C#
  I`ve loved you ever since
                  F#
  you are a friend of mine
      D#m7                             G#
  and babe is this all we ever could be


CHORUS
      Fm                 A#m
  you tell me things I`ve never known
     D#m                             F#
  I shown you love you`ve never shown
      Fm           A#m
  but then again, when you cry
      D#m          G#    F#
  I`m always at your side
      Fm                A#m
  you tell me `bout the love you`ve had
   D#m                  F#
  I listen very eagerly
       Fm                A#m
  but deep inside you`ll never see
       D#7sus4 D#7
  this feeling of emptiness
     G#
  It makes me feel sad
      D#m7  Fm  F#  G#
  but then    again    I`m glad



ADLIB
C# F# C# F#


VERSE II
       C#
  I`ve known you all my life
                 F#
  you are a friend of mine
    D#m7                          G#
  I know this is how it`s gonna be
        C#
  I`ve loved you then and I love you still
  F#
    you`re a friend of mine
  D#m7                                         G#
  now, I know friends are all we ever could be


CHORUS II

      Fm                 A#m
  you tell me things I`ve never known
     D#m                             F#
  I shown you love you`ve never shown
      Fm           A#m
  but then again, when you cry
      D#m          G#    F#
  I`m always at your side
      Fm                A#m
  you tell me `bout the love you`ve had
   D#m                  F#
  I listen very eagerly
       Fm                A#m
  but deep inside you`ll never see
       D#7sus4 D#7
  this feeling of emptiness
     G#
  It makes me feel sad
      D#m7  Fm  F#  G#
  but then    again
  Fm      A#m
  then again
  D#m7 Fm   F#  G#
  then    again     I`m glad


OUTRO
  C# F# C# F# C#

===============================================================================





Comments


Popular Lea Salonga tabs & chords
Lupa Man Ay Langit Na Rin Chords
Please Naman Chords
Sana Ngayong Pasko Chords
Tagumpay Nating Lahat Chords
Tagumpay Nating Lahat 2 Chords
Love Is All That Matters Intro Tabs
Even If Ukulele
Friend Of Mine Ukulele
Land Of The Loving Ukulele
We Could Be In Love Ukulele


Song lyrics



↑ Back to top | Tablatures and chords are parodies/interpretations of the original songs. You may use it for private study, scholarship, research or language learning purposes only
© 2014 AZChords.com Contact us | Privacy policy | DMCA | Add/correct tabs | Request tabs | Top 50 tabs