» » »

Lea Salonga, Dont Know What To Do, Dont Know What To Say Tabs (ver.1)

Artists:  A B C D E F G H I J K L M N O P Q R S T U V W X Y Z # 

Dont Know What To Do, Dont Know What To Say Tabs (ver.1)

Lea Salonga Tabs
Rating:
0/5 (0 votes)
Dont Know What To Do, Dont Know What To Say lessons Tabs too difficult? Try these video lessons and learn fast
                Don't know what to do, don't know what to say



INTRO:

E--------0--------------0--------------0--------------0----!
B------3---3---3------3---3---3------3---3---3------3------!
G----2-------2------2-------2------2-------2------2--------!
D--0-----------------------------0-------------------------!
A----------------------------------------------------------!
E-----------------3-----------------------------3----------!


VERSE I

E-----------0--------------------0--------------------0--------------------0-----------!
B--------3-----3-----3--------3-----3-----3--------3-----3-----3--------3-----3-----0--!
G-----2-----------2--------2-----------2--------2-----------2--------2-----------2-----!
D--0-----------------------------------------0-----------------------------------------!
A--------------------------------------------------------------------------------------!
E-----------------------3-----------------------------------------3--------------------!
    I  have loved you only  in   my    mind  but   I  know  that there  will  come  a


E--------------4-----------------2-----------------------3-----0-----------0---!
B-----------5--------5--------3-----3-----0--------------3-----0-----------2---!
G--------6--------6--------2-----------2--------------0-----0-----------2------!
D-----6-----------------0--------------------------0-----------------2---------!
A--4--------------------------------------------2-----------------0------------!
E--------------------------------------------3---------------------------------!
  time.....feel   this feeling I have......inside


E-----------0--------------------0--------------------0--------------------0-----------!
B--------3-----3-----3--------3-----3-----3--------3-----3-----3--------3-----3-----0--!
G-----2-----------2--------2-----------2--------2-----------2--------2-----------2-----!
D--0-----------------------------------------0-----------------------------------------!
A--------------------------------------------------------------------------------------!
E-----------------------3-----------------------------------------3--------------------!
  You're a hopeless romantic is what they say falling in and out of love is  like  a


E--------------4-----------------2----------------------------------3-----3--3--3--!
B-----------5--------5--------3-----3-----0-------------------------3-----3--3--3--!
G--------6--------6--------2-----------2-------------------------0-----0-----0--0--!
D-----6-----------------0-------------------------------------0--------------------!
A--4-------------------------------------------------------2-----------------------!
E-------------------------------------------------------3--------------------------!
  play....memorizing each line still don't know what to say 


E----------------------0-----0--0--0--0--!
B-------------------2--------2--2--2--0--!
G----------------2-----------2--2--2--0--!
D-------------2-----------2-----2--2--0--!
A----------0--------------------0--0--0--!
E----------------------------------------!
  what to say....


CHORUS:

G                  A                   F#m
Don't know what to do whenever you are near

                    Bm                          G
Don't know what to say my heart is floating in tears

          A              Bm
When you pass by I could fly

G                    A            F#m
Every minute,every second of the day

                       Bm           G             A               Bm
I dream of you in the most special way, you're beside me all the time


VERSE II


(Same as verse I)


I have loved you and I always will
Call it crazy but I know someday you'll feel 
This feeling I have for you inside
I'm a hopeless romantic I know I am
Memorized all the line and here I am
Struggling for words still don't know what to say..
What to say..

REPEAT CHORUS

         G---A
All the time..

         Bm
All the time..
            

comments powered by Disqus
↑ Back to top | Lea Salonga Tabs for Dont Know What To Do, Dont Know What To Say. Lyrics for acoustic guitar and electric guitar. Tablatures and chords are parodies/interpretations of the original songs. You may use it for private study, scholarship, research or language learning purposes only