>
 >
Life Goes On

Life Goes On Guitar Tabs

Leann Rimes - Life Goes On chords, tabs, tablatures, lyrics

Guitar lessons | Add/correct | Request | Top 50 tabs Artists:  A B C D E F G H I J K L M N O P Q R S T U V W X Y Z 0-9

Life Goes On Guitar Tabs – Leann Rimes

CD, Sheet music, Poster

Do you like Life Goes On? Share with your friends now
ChordsTabs
Song title     :Life goes on
Artist         :Leann Rimes

The Chorus is played mostly with violin but i tabbed it anyway
sounds great with guitar too
A little distorted throughout
Intro:
e|---------------------------------------------------------------------------|
B|-15-14-15-----15-14-----15-15----17---14-15-14-----------------------------|
G|----------16----------16------16-------------------------------------------|
D|---------------------------------------------------------------------------|
A|---------------------------------------------------------------------------|
E|---------------------------------------------------------------------------|

e|---------------------------------------------------------------------------|
B|-15~--17-19-17~---15-14------15-15---17~-14-15-14--------------------------|
G|--------------------------16-------16--------------------------------------|
D|---------------------------------------------------------------------------|
A|---------------------------------------------------------------------------|
E|---------------------------------------------------------------------------|

Verse:
Bm
You sucked me in
A Bm
And played my mind
Bm
Just like a toy
A Bm
You were crank and wind

A
Baby I would give till you wore it out
G A
You left me lyin' in a pool of doubt
A
And you're still thinkin' you're the Daddy Mac
G A
You should've known better but you didn't
A
And I can't go back

Chorus 1:
e|---------------------------------------------------------------------------|
B|-15~-17-19-17~----15--14--------14-15-------------15p14p12-----------------|
G|-------------------------14--16-------12---14~-------------14--------------|
D|---------------------------------------------------------------------------|
A|---------------------------------------------------------------------------|
E|---------------------------------------------------------------------------| 2X

D
Oh life goes on
A                                Bm
And it's only gonna make me strong
         G                      A
It's a fact, once you get on board

Say good-bye cause you can't go back
D              A                             Bm
Oh it's a fight, and I really wanna get it right
          G                    A
Where I'm at, is my life before me

And this feelin' that I can go back


e|---------------------------------------------------------------------------|
B|--10~--8-7------7~---------------------------------------------------------|
G|-----------9~-----9--7-----7/9---------------------------------------------|
D|-----------------------9---------------------------------------------------|
A|---------------------------------------------------------------------------|
E|---------------------------------------------------------------------------|

Verse:
Bm
Wish I knew then
A Bm
What I know now
Bm
You held all the cards
A Bm
And sold me out

A
Baby shame on you, if you fool me once
G A
Shame on me if you fool me twice
A
You've been a pretty hard case to crack
G A
Should've known better but I didn't
A
And I can't go back

Chorus 1:
e|---------------------------------------------------------------------------|
B|-15~-17-19-17~----15--14--------14-15-------------15p14p12-----------------|
G|-------------------------14--16-------12---14~-------------14--------------|
D|---------------------------------------------------------------------------|
A|---------------------------------------------------------------------------|
E|---------------------------------------------------------------------------| 2X

D
Oh life goes on
A                                Bm
And it's only gonna make me strong
          G                     A
It's a fact, once you get on board

Say good-bye cause you can't go back
D             A                               Bm
Oh it's a fight, and I really wanna get it right
         G             A
Where I'm at, is my life before me

And this feelin' that I can go back

Chorus 2:
e|---------------------------------------------------------------------------|
B|-15-14-15-----15-14-----15-15----17---14-15-14-----------------------------|
G|----------16----------16------16-------------------------------------------|
D|---------------------------------------------------------------------------|
A|---------------------------------------------------------------------------|
E|---------------------------------------------------------------------------|

e|---------------------------------------------------------------------------|
B|-15~--17-19-17~---15-14------15-15---17~-14-15-14--------------------------|
G|--------------------------16-------16--------------------------------------|
D|---------------------------------------------------------------------------|
A|---------------------------------------------------------------------------|
E|---------------------------------------------------------------------------|

e|---------------------------------------------------------------------------|
B|-15~-17-19-17~----15--14--------14-15-------------15p14p12-----------------|
G|-------------------------14--16-------12---14~-------------14--------------|
D|---------------------------------------------------------------------------|
A|---------------------------------------------------------------------------|
E|---------------------------------------------------------------------------|


Life goes on 
D               
Na, na, na, na, na
           A
Life goes on

Na, Na, Na, Na,
                Bm
It made me strong
G     A                          
Oh yeah, got this feeling that I can't go back
D A         Bm  G    A        
Life goes on            (and it's only gonna me strong)
D A         Bm   G    A
Life goes on and on and on
A
shame on you, if you fool me once
G A
Shame on me if you fool me twice
A
You've been a pretty hard case to crack
G A
Should've known better but I didn't
A
And I can't go back

Chorus 1:
e|---------------------------------------------------------------------------|
B|-15~-17-19-17~----15--14--------14-15-------------15p14p12-----------------|
G|-------------------------14--16-------12---14~-------------14--------------|
D|---------------------------------------------------------------------------|
A|---------------------------------------------------------------------------|
E|---------------------------------------------------------------------------| 2X
D
Oh life goes on
A                                Bm
And it's only gonna make me strong
          G                     A
It's a fact, once you get on board

Say good-bye cause you can't go back
D             A                               Bm
Oh it's a fight, and I really wanna get it right
         G             A
Where I'm at, is my life before me

And this feelin' that I can go back

e|---------------------------------------------------------------------------|
B|-15-14-15-----15-14-----15-15----17---14-15-14-----------------------------|
G|----------16----------16------16-------------------------------------------|
D|---------------------------------------------------------------------------|
A|---------------------------------------------------------------------------|
E|---------------------------------------------------------------------------|

e|---------------------------------------------------------------------------|
B|-15~--17-19-17~---15-14------15-15---17~-14-15-14--------------------------|
G|--------------------------16-------16--------------------------------------|
D|---------------------------------------------------------------------------|
A|---------------------------------------------------------------------------|
E|---------------------------------------------------------------------------|

e|---------------------------------------------------------------------------|
B|-15~-17-19-17~----15--14--------14-15-------------15p14p12-----------------|
G|-------------------------14--16-------12---14~-------------14--------------|
D|---------------------------------------------------------------------------|
A|---------------------------------------------------------------------------|
E|---------------------------------------------------------------------------|
D
Na, na, na, na, na
           A
Life goes on

Na, Na, Na, Na
               Bm
It made me strong
G A
Oh yeah  Gotta feelin' that I can't go back

D
Na, na, na, na, na
           A
Life goes on

Na, Na, Na, Na
               Bm
It made me strong
G A
Oh yeah  
A
Gotta feelin' 
outro:
that I can't go back...
e|-----------------14-15-17--15-14-15---14-12-14---12-10-12------------------|
B|-------14-15-17------------------------------------------------------------|
G|-14-16---------------------------------------------------------------------|
D|---------------------------------------------------------------------------|
A|---------------------------------------------------------------------------|
E|---------------------------------------------------------------------------|

e|-----------10-12-14-15-14--12-10-12--10/0----------------------------------|
B|-10-12-14-------------------------------------7-5--------------------------|
G|---------------------------------------------------7-6-4------4-6-7~-------|
D|-----------------------------------------------------------7---------------|
A|---------------------------------------------------------------------------|
E|---------------------------------------------------------------------------|





Comments


Popular Leann Rimes tabs & chords
Blue Chords
Blue 2 Chords
But I Do Love You 1 Chords
The Rose (correct Version) Chords
Can't Fight The Moonlight Tabs
One Way Ticket Tabs
But I Do Love You Ukulele
Soon Ukulele
We Can Ukulele
Weight Of Love Ukulele


Song lyrics



↑ Back to top | Tablatures and chords are parodies/interpretations of the original songs. You may use it for private study, scholarship, research or language learning purposes only
© 2014 AZChords.com Contact us | Privacy policy | DMCA | Add/correct tabs | Request tabs | Top 50 tabs