» » »

Doesn't Everybody Chords (ver.1)

Artists:  A B C D E F G H I J K L M N O P Q R S T U V W X Y Z # 

Doesn't Everybody Chords (ver.1)

Leann Rimes
Rating:
0/5 (0 votes)

Hard to play? Try these video lessons and learn fast.
                -------------------------------------------------------------------------------
-------------------------------------------------------------------------------


Tuning: Standard EADGBE

    v v   v ^ V   v v  v ^ V   v v  v ^ V  v v  v ^ V
E|--2-2---2-2-2---0-0--0-0-0---0-0--0-0-0--0-0--0-0-0----|
B|--3-3---3-3-3---2-2--2-2-2---0-0--0-0-0--0-0--0-0-0----|
G|--2-2---2-2-2---2-2--2-2-2---0-0--0-0-0--0-0--0-0-0----|
D|--0-0---0-0-0---2-2--2-2-2---2-2--2-2-2--2-2--2-2-2----|
A|--x-x---x-x-x---0-0--0-0-0---2-2--2-2-2--2-2--2-2-2----|
E|--x-x---x-x-x---x-x--x-x-x---0-0--0-0-0--0-0--0-0-0----|


I think it sounds good, but it may not be completely accurate. I love this song though 
didn't see it posted.

It sounds pretty repetitive to me. All I posted is the basic chord pattern for the song. 
pretty simple. The strumming pattern is the same throughout.

Chords used:

D, A, Em

Intro: D, A Em

D			A	Em
You may have a tabloid life

Em
pay for all your friends

D		A		Em
You may be a suburban wife

Em
with your white picket fence

D		A		Em
You may be a suit and tie

Em
paying off your high rise rent

[Chorus]

When it all comes down
When it all comes down baby
When it all comes down to it

D			A	Em
Doesn't everybody want the same thing
Em
to be loved

D			A	Em
Doesn't everybody want the same thing

Em
why isn't that enough

D			A	Em
Doesn't everybody want the same thing


D		A
You may be a night shift waitress

Em
to send your kid through school

D			A	Em
You may be a stubborn doctor

Em
pushing for the cure

D			A	Em
You may be a bitter divorce

Em
wandering what he saw in her

[CHORUS]

When it all comes down
When it all comes down baby
When it all comes down to it

D			A	Em
Doesn't everybody want the same thing
to be loved

D			A	Em
Doesn't everybody want the same thing

why isn't that enough

D			A	Em
Doesn't everybody want the same thing


| /  slide up
| \  slide down
| h  hammer-on
| p  pull-off
| ~  vibrato
| +  harmonic
| x  Mute note
===============================================================================
            
Hard to play? Try these video lessons and learn fast. | Correct




comments powered by Disqus
↑ Back to top | Tablatures and chords are parodies/interpretations of the original songs. You may use it for private study, scholarship, research or language learning purposes only